Blink 182 - Stay Together For The Kids

Intro
|-----------------|----------------|----------------|-----------------| 
|-----------------|----------------|----------------|-----------------| 
|-----------------|----------------|----------------|-----------------| 
|---0---7-0---4-0-|--0---7-0---4-0-|---0---4-0--5-0-|---2---4-5-4-2-0-| 
|-5---5-----5-----|4---4-----4-----|-2---2-----2----|-0---0-----------| 
|-----------------|----------------|----------------|-----------------| 

Verse
  D                       Bm7
|-----------------------|--------------------------| 
|-----------------------|--------------------------| 
|----7----7----7----7---|----7----7----7----7------| 
|----7----7----7----7---|----7----7----7----7------| 
|-55--555---555--555--5-|--------------------------|
|-----------------------|-77--777--777--777--------| 

   Asus4                  A
|-----------------------|-----------------------| 
|-----------------------|----5----5-------------| 
|----7----7----7----7---|----6----6----6----6---| 
|----7----7----7----7---|--------------7----7---| 
|-----------------------|-----------------------| 
|--55--555--555--555--5-|-55--555--555--555--5--| 

Chorus
  G                    D/F#
|-------------------|--------------------| 
|-------------------|--------------------|
|-------------------|--------------------|
|-5555555555555555--|--4444444444444444--| 
|-5555555555555555--|--5555555555555555--| 
|-3333333333333333--|--2222222222222222--| 

Interlude
  D                 D/A               D/G               D/A
|-----------------|-----------------|-----------------|-----------------| 
|-----3-----3---3-|-----3-----3---3-|-----3-----3---3-|-----3-----3---3-| 
|---2-----2-------|---2-----2-------|---2-----2-------|---2-----2-------| 
|-0-----0-----0---|-----------------|-----------------|-----------------| 
|-----------------|-0-----0-----0---|-----------------|-0-----0-----0---| 
|-----------------|-----------------|-3-----3-----3---|-----------------|