What's My Age Again?-Blink 182

CHORDS

  F# C# D# B
|--------------|
|--------------|
|----6--8--4---|
|-4--6--8--4---|
|-4--4--6--2---|
|-2------------|

LEAD RIFF
|----------------------------------------------|
|------11----------11---------11---------11----|
|---11----11----11----11---11----11---11----11-|
|-9--------------------------------------------|
|------------11--------------------------------|
|------------------------9---------11----------|

BASS RIFF
|--------------|
|--------------|
|-222---444666-|
|----444-------|

CHORUS
|---------------|
|---------------|
|----66--88--44-|
|-4--66--88--44-|
|-4--44--66--22-|
|-2-------------|

CHROUS #2
|-----------------|
|-----------------|
|----66--8888-666-|
|-4--66--8888-666-|
|-4--44--6666-444-|
|-2---------------|

MUTED RIFF
|--------------|
|--------------|
|-444---66688--|
|-44466666688--|
|-22266644466--|
|----444-------|

SOLO RIFF #1
|--------------------|
|---11-----11--------|
|------11-----11-----|
|-9----------------9-|
|--------------------|
|--------------------|

SOLO RIFF #2
|---------|
|---------|
|---------|
|-----8H9-|
|-999-----|
|---------|

SOLO RIFF #3
|--------------|
|--------------|
|-------11-----|
|---8------8H9-|
|-9---9--------|
|--------------|

ORDER
LEAD RIFF 2
THEN BASS JOINS WITH THE BASS RIFF FOR 2 MORE
THEN SING FOR 4 MORE RIFFS
THEN I THINK YOU HOLD THE NOTES FOR THE TRANISITION INTO
CHORUS RIFF *3
CHORUS RIFF #2
LEAD RIFF
MUTED RIFF WITH VERSE *4
SOLO RIFF #1 *4
SOLO RIFF #2 *8
SOLO RIFF #3 *8
CHORUS RIFF * 3
CHORUS RIFF #2
CHORUS RIFF * 3
CHORUS RIFF #2
CHORUS RIFF * 3
CHORUS RIFF #2