Blondie-Dreaming

Intro
  (D)                (G)            (D)                (G)  
|--------------------------------------------------------------------|
|--------------------------------------------------------------------|
|--7---------------------------------7-------------------------------|
|--7--7sl9-7-5-4h5p4--5--------5-----7--7sl9-7-5-4h5p4--5--------5---|
|--5------------------5--5-h-7---7---5------------------5--5-h-7---7-|
|---------------------3---------------------------------3------------|

|--------------------------------------------------------------------|
|--------------------------------------------------------------------|
|--6-sl-7--(7)--------6-7-7-sl-9-7---6-sl-7--(7)--------6-7-7-sl-9-7-|
|--------------------------------------------------------------------|
|--------------------------------------------------------------------|
|--------------------------------------------------------------------|

Verse

(Don't Use Dotted sections during second verse)

 When  I met you in a Restaurant    You could t'I'w'no  Debutante...
  (D)                (G)            (D)                (G)    
|--------------------------------------------------------------------|
|--------------------------------------------------------------------|
|--7---------------------------------7-------------------------------|
|--7--7sl9-7-5-4h5p4--5--------5-----7--7sl9-7-5-4h5p4--5--------5---|
|--5--..............--5--5-h-7---7---5--..............--5--5-h-7---7-|
|---------------------3--.........----------------------3--.........-|

 You asked me...      Pleasure...   Measure...         Tea and tell...
  (D)                (A)            (B)                (D)   (A)
|--------------------------------------------------------------------|
|--------------------------------------------------------------------|
|--7----------------------------------------------------7------------|
|--7--7sl9-7-5-4------7--5-4---------9--5-4-------------7-----7------|
|--5--..........------7------7--5----9------7--5--------5-----7------|
|---------------------5--........----7--........--------------5------|

Chorus

 Dreamin'  - Dreamin is Free
 (D)        (G)   

 Dreamin,  - Dreamin is Free
 (D)        (G)
 
Interlude

 1. Feet Feet walking a two mile
 2. Dream dream even for a little while
   (G)

 1. Meet Meet meet me at the turnstile
 2. Dream dream filling up an idle hour
   (G)
  
 1. I never met him
 2. Fade away...
   (D)

 1. I'll never Forget him
 2. Radiate.
   (A)

Outro

Play Chorus with slides from 3rd to 10th fret on the second string