Blondie-Sunday Girl

INTRO

Guitar.1
 (D)        (A)  (D)        (A)   (D)        (A)  (D)        (A)
|--------------------------------|--------------------------------|
|-3---------------3--------------|-3---------------3--------------|
|-2----2--2-------2----2--2------|-2----2--2-------2----2--2------|
|-0----0--0--2----0----0--0--2---|-0----0--0--2----0----0--0--2---|
|------------0---------------0---|------------0---------------0---|
|--------------------------------|--------------------------------|
Guitar.2
|-2---------------2--------------|-2---------------2--------------|
|-3---------------3--------------|-3---------------3--------------|
|-2---------------2--------------|-2---------------2--------------|
|-0---------------0--------------|-0---------------0--------------|
|--------------------------------|--------------------------------|
|--------------------------------|--------------------------------|

VERSE

 I know a  -     girl  From  a     Lonely street  Cold as ....etc.

 (D)               (G)       (A)  (D)               (G)       (A)
|--------------------------------|--------------------------------|
|--------------------------------|--------------------------------|
|--------------------------------|--------------------------------|
|-7----7--7----------------------|-7----7--7----------------------|
|-5----5--5---------5---------7--|-5----5--5---------5---------7--|
|----------------0--3---0--0--5--|----------------0--3---0--0--5--|

CHORUS

 Hurry up Hurry Up and Wait, I stay all week and still I wait  I

 (G)                            (D)
|-----------------------------------------------------------------|
|-----------------------------------------------------------------|
|-----------------------------------------------------------------|
|--------------------------------7--------------------------------|
|-5------------------------------5(strum-with fast downstrokes)---|
|-3(strum-with fast downstrokes)----------------------------------|

 Got the blues  Please come see  What your loving means to me

 (G)                            
|--------------------------------7----------------4-------------7-|
|--------------------------------9----------------5-------------7-|
|--------------------------------9----------------6-------------8-|
|--------------------------------9----------------7-------------9-|
|-5------------------------------7----------------7-------------9-|
|-3(strum-with fast downstrokes)-7----------------5-------------7-|

Key Change

Play The chorus and verse parts as before, but moved up one tone in
Pitch (that's two frets).  

Interlude

Directly after "If I go with you my folks will get uptight
                stay at home sunday -" play....

 Girl   -  Oooooh  -  eeeee      Ooooh....

 (C#m)                         (G#m)
|-9------------------------------4----------------------------------|
|-9------------------------------4----------------------------------|
|-9------------------------------4----------------------------------|
|-11-----------------------------6----------------------------------|
|-11-----------------------------6----------------------------------|
|-9------------------------------4----------------------------------|

 (F#)                           (A)              (B)
|-4-------------2---------------------------------------------------|
|-4-------------2---------------------------------------------------|
|-3-------------3---------------------------------------------------|
|-4-------------4----------------7-7-7-7-7-7-7-7--9-9-9-9-9-9-9-9---|
|-4-------------4----------------7-7-7-7-7-7-7-7--9-9-9-9-9-9-9-9---|
|-2-------------2----------------5-5-5-5-5-5-5-5--7-7-7-7-7-7-7-7---|

Outro

The song ends with the french lyrics, accompanied by the verse guitar
part (still up two frets due to key change) and this, plus variations.

|-------------------------------------------------------------------|
|-------------------------------------------------------------------|
|-------------------------------------------------------------------|
|----2--4--2-2-----2--4--2--------------4--2--------4-4--2----------|
|-4-------------4-----------4--2-----2-----------2------------------|
|---------------------------------4-----------4---------------------|