"13"
Tabs & chords provided by Simon Lee <asico@cwcom.net> and
lyrics provided by Jamie <jamie@blur.org.uk> unless otherwise
noted.


Tender

Tabs provided by me.

Intro:

E --------------------0----------------h-p-----------------
B ----0-2-0-------0-2---1/2---------2-2-3-2---------3-1/2--
G --2-------2-2-2-----------2---2-----------1---1-1-1-1/2--
D ----------------------------2-------------2--------------
A --------------------------------0------------------------
E --------------------------------------------0------------

E ----------------------0--------------h-p--------0---0--------
B ----0-2-0---------0-2---1/2-------2-2-3-2---------0---0---2--
G --2---2-----2---2-----------2-------------0-1-------------2--
D ----------2-------------------2---------------2---------2----
A --------------0-----------------0----------------------------
E -------------------------------------------------------------

E --------------------------------
B --------2-2-----2--------2-2----
G --2--2------2-2----2--2------2--
D --------------------------------
A --------------------------------
E --------------------------------

E ----------------------------0--------------------h-p---------
B ----0-2-0-------------0-1/2---1/2-----------2-2-2-3-2--------
G --2-------2---------2-----------------------2---------0-1----
D ------------2---------------------2-----------------------2--
A --------------0-0-0-----------------0-0-0-0------------------
E -------------------------------------------------------------

E -----------------------
B --3-----3-1-2----------
G ----1---1-1-2----------
D ------2-2-----2--------
A ----------------0-0-0--
E -----------------------

A                   G             A
Tender is the night lying by your side

A                      G                A
Tender is the touch of someone that you love too much

A                     G          A
Tender is the day the demons go away

A                   G               A
Lord I need to find someone who can heal my mind



A                              D   C
Come on, come on, come on,     get through it

A                              C#m        D
Come on, come on, come on,     love's the greatest thing

A                              D   C
Come on, come on, come on,     get through it

A                              C#m        D
Come on, come on, come on,     love's the greatest thing

C#m     D
That we have

    C#m              D
I'm waiting for that feeling

      C#m              D
(I'm) Waiting for that feeling

A                D          A
Waiting for that feeling to come


A                          E7      A
Oh my baby, oh my baby, oh why, oh my

A                       E7      A
Oh my baby, oh my baby, oh why, oh my



A			 G		  A
Tender is the ghost, the ghost I love the most

A		     G		     A
Hiding from the sun, waiting for the night to come

A		       G	      A
Tender is my heart for screwing up my life

A		    G		    A
Lord I need to find someone who can heal my mind


Solo:

E ----------------------------------------5-3-0-2-3-2-0-------
B -----------5----------------------2-------------------------
G --5^-5^-5^---5^-0------h-p----------2-----------------5^-0--
D -------------------h--0-2-0---------------------------------
A ------------------0-2-------2-0-0-----0---------------------
E ------------------------------------------------------------

E -------------------
B -------------------
G -------h-p---------
D ---h--0-2-0--------
A --0-2-------2-0-0--
E -------------------




------------------------------------------------------------------------------

Bugman

Intro: 

E --------------------------------------------- 
B ---6--6--6-6-6---2--2-2--x-x--4--2--4--2----- 
G ---7--7--7-7-7---3--3-3--x-x--5--3--5--3----- 
D ---8--8--8-8-8---4--4-4--x-x--6--4--6--4----- 
A --------------------------------------------- 
E --------------------------------------------- 


A#		F# 	G# F# G# F#
I am an ex offender

A#		       F#	G# F# G# F#
They let me out in the summer

A#		   F#	G# F# G# F#
I think I was in a coma

A#		      F#  G# F# G# F#
I didn't know what to do, oh no


C#				E
You go hang around go round

F#					    G#
I'll watch myself hang on, look out for the Bugman

C#				E
You go hang around around

F#
I'll watch myself hang on, look out for the Bugman


A#		    F#		G# F# G# F#
I got no scent of existence

A#		   F#	G# F# G# F#
I know the nodding dogs

A#		F#	G# F# G# F#
I go out in the city

A#		     F#    G# F# G# F#
I stay away from the bugs, oh yeah

E -------------------------------------------------
B -------------------------------------------------
G ------------------------------------------------- 2
D ------------------------------------------------- x
A -------------------------------------------------
E ---6--6-6--4--6--6-6--4--6--6-6--4--6--1--4-5-6--

E ----------------------------    --------------------------
B ----------------------------    --------------------------
G ---------------------------- 2  --------------------------
D ---------------------------- x  --------------------------
A ----------------------------    --------------------------
E ---6--6-6-6-6-6-6-6--1-4-5--    --6--6-6-6-6-6-6-6-5-4-1--

E -----------------------------------
B -----------6-----------------------
G -----------6------------p----p-----
D ---------6----------6--8-6--8-6----
A -----6-8--------6-8-------------8--
E ---6----------6--------------------

E --1-4-6-4-6-4-6-4-6-4-6-4-6-4-6-4-6-4-6-4-6-4-6--

Space is the place...  

------------------------------------------------------------------------------

Coffee & TV

    B    			      Am  		E 
E --7-7---7-7-7---7-7-7---7-7-7---x-x-5-5---5-5-5---x-x-0-0---0-0-0-- 
B --7-7---7-7-7---7-7-7---7-7-7---x-x-5-5---5-5-5---x-x-0-0---0-0-0-- 
G --8-8---8-8-8---8-8-8---8-8-8---x-x-5-5---5-5-5---x-x-1-1---1-1-1-- 
D --9-9---9-9-9---9-9-9---9-9-9---x-x-7-7---7-7-7---x-x-2-2---2-2-2-- 
A --9-9---9-9-9---9-9-9---9-9-9---x-x-7-7---7-7-7---x-x-2-2---2-2-2-- 
E --7-7---7-7-7---7-7-7---7-7-7---x-x-5-5---5-5-5---x-x-0-0---0-0-0-- 

        G/D           F               Bb             C# 
E --x-x-3-3---3-3-3---1-1-1---1-1-1---6-6---6-6-6----9--9-----9--9--9---
B --x-x-3-3---3-3-3---1-1-1---1-1-1---6-6---6-6-6----9--9-----9--9--9---
G --x-x-0-0---0-0-0---2-2-2---2-2-2---7-7---7-7-7----10-10----10-10-10-- 
D --x-x-0-0---0-0-0---3-3-3---3-3-3---8-8---8-8-8----11-11----11-11-11--
A --x-x-2-2---2-2-2---3-3-3---3-3-3---8-8---8-8-8----11-11----11-11-11-- 
E --x-x-3-3---3-3-3---1-1-1---1-1-1---6-6---6-6-6----9--9-----9--9--9---
  


B 
Do you feel like a chain-store 

Am          E 
Practically floored 

G/D         F 
One of many zeros 

Bb            C# 
Kicked around bored 

B 
Your ears are full but you're empty 

Am   		 E 
Holding out your heart 

G/D       	    F 
To people who never really 

Bb           A 
Care how you are 
  


           C#m 
So give me coffee and TV 

B    A 
History 

     C#m       	      E 
I've seen so much I'm going blind 

        A  		  B 
And I'm brain-dead virtually 

C#m 
Sociability 

   B 	           A 
Is hard enough for me 

C#m 	               E 
Take me away from this big bad world 

       A  	     D 
And be free to marry me 

 	        A 
So we can start over again 
  
 

B 
Do you go to the country 

   Am         E 
It isn't very far 

G/D  		            F 
There's people there who'll hurt you 

Bb	           C# 
Because of who you are 

B 
Your ears are full of their language 

        Am	            E 
There's wisdom there you're sure 

G/D	             F 
'Til the words start slurring 

Bb  		       A 
And you can't find the door 
  
------------------------------------------------------------------------------

Swamp Song

E --1/3--3--6/8--8--10/11--11--10\8--8--
B --1/3--3--6/8--8--10/11--11--10\8--8--
G# -1/3--3--6/8--8--10/11--11--10\8--8--
E --1/3--3--6/8--8--10/11--11--10\8--8--
B --1/3--3--6/8--8--10/11--11--10\8--8--
E --1/3--3--6/8--8--10/11--11--10\8--8--

Give me good times 
Give me soul lines 
Give me fever 
I'm a believer 

Give me insane 
Give me space brain 
Give me music, give me love 
Abandon us in love 

Give me good times 
(I want to be with you...) 
There no joke rhymes 
(I don't know what to do...) 
Give me easy breathing 
(I want to be with you...) 
Give me everything 
(I don't know what to do...) 
Everything, everything 

E --/11--11-11---/11--11-11---/11--11-11-11----6--8--8--6--8--8--- 
B --/11--11-11---/11--11-11---/11--11-11-11----6--8--8--6--8--8--- 
G# -/11--11-11---/11--11-11---/11--11-11-11----6--8--8--6--8--8--- 
E --/11--11-11---/11--11-11---/11--11-11-11----6--8--8--6--8--8--- 
B --/11--11-11---/11--11-11---/11--11-11-11----6--8--8--6--8--8--- 
E --/11--11-11---/11--11-11---/11--11-11-11----6--8--8--6--8--8--- 
  
WACCA WACCA 

E --3--5--5--3--5--5--3---10--10--8--10--10--- 
B --3--5--5--3--5--5--3---10--10--8--10--10--- 
G# -3--5--5--3--5--5--3---10--10--8--10--10--- 
E --3--5--5--3--5--5--3---10--10--8--10--10--- 
B- -3--5--5--3--5--5--3---10--10--8--10--10--- 
E --3--5--5--3--5--5--3---10--10--8--10--10--- 
  
Give me good times 
And give me soul lines 
Give me fever 
I'm a believer 

Give me insane 
(I want to be with you...) 
Give me space brain 
(I don't know what to do...) 
Don't leave me ever 
(I want to be with you...) 
We'll live forever 
(I don't know what to do...) 
Yes we will 
I know we will 

Gimme good times 
Give me a soul line 
Give me fever 
I'm a believer 

Give me insane 
(I want to be with you...) 
Give me space brain 
(I don't know what to do...) 
Give me music, give me love 
(I want to be with you...) 
I'll pay to see love 
(I don't know what to do...) 

Stick it in my veins 
Stick it in my veins 
Stick it in my veins 

La-la la-la la-la-la-la-la-la..... 

------------------------------------------------------------------------------

1992

Am         D 
Going into business 

F#m             D 
An agreement of your bombast 

G#m 
You'd love my bed 

Bm                   D        F   
You took the other instead 

Am            D 
But don't you feel low? 

F#m         D 
I was being oblique 

G#m 
You'd love my bed 

Bm                  D         F   
You got the other instead 
  


Am          D 
What do you owe me? 

F#m               D 
The price of your peace of mind 

G#m 
You'd love my bed 

Bm                D      F   
You took it all instead 

------------------------------------------------------------------------------

B.L.U.R.E.M.I.

e ---7--7-7---5--5-5---5-5-5---5--5-5-5--- 
B ---7--7-7---5--5-5---5-5-5---5--5-5-5--- 
G ---8--8-8---6--6-6---6-6-6---6--6-6-6--- 
D ---9--9-9---7--7-7---7-7-7---7--7-7-7--- 
A ---9--9-9---0--0-0---5-5-5---0--0-0-0--- 
E ---7--7-7-------------------------------- 

Group using a loop
Of another pop group
Group shooting a hoop
And starving it up in to the soup
Cos I'm of regular features
And Adidas trainers
Completing the cycle
Until the teenage maniacs
Can bring it on back


B   D   B   A
B L U R E M I  (4x)


Group using a loop
Of another pop group
Completing the cycle
Until the teenage maniacs
They'll bring it all back

B L U R E M I
B L U R E M I
B L U R E M I
B L U R E M I

------------------------------------------------------------------------------

Battle

Battle, Battle, Battle, Battle, Battle
Battle Someone..oooh

Battle, Battle, Battle
Battle Someone..oooh

Completion Search
Here I love the bow
See me walk on down to
Adorn myself, it's a new song glory
Cos see me, what do you think of now?
 
Battle, Battle, Battle, Battle, Battle
Battle Someone..oooh
Battle, Battle, Battle, Battle, Battle
Battle Someone..oooh

Can turn your sights
kill until sub-zero
see me oh it turns you on

All my gawe
It's the end of your
Take your last one now

Battle, Battle, Battle, Battle, Battle
Battle Someone..oooh
Battle, Battle, Battle, Battle, Battle
Battle Someone..oooh

------------------------------------------------------------------------------

Mellow Song

A G       A 
I lift my street 

      Bb    A 
I'm a guillotine 

G        A 
Pull it away 

F        G 
In my machine 

F            G 
Where have I been, now? 

D   A 
Not you 
  

A        G           A 
Shooting stars in my left arm 

        Bb      A 
It's an alcohol low 

G        A          F   G 
Giving away time to Casio 

F       G 
Sun is slow 

  D   A 
I got soul 
  
  

C                 D 
Is this where I'm going to? 

F#m      G(add 7) 
   We'll see 

F#m      G(add 7) 
   We'll see 

F#m      G(add 7)  G# 
   We'll see 
  
  

A G         A 
I kill this sleep 

        Bb         A 
I'm the man in the moon 

G          A          F        G 
Walking in sand on my own high noon 

F                G 
In love with the moon 

D    A 
Love you 
  

A      G       A 
'Cos I lift my street 

      Bb    A 
I'm a guillotine 

G        A 
Pull it away 

F        G 
In my machine, 

   F              G 
Forget where I've been before

   D   A 
Forget you 
  

C                 D 
Is this where I'm going to? 

F#m      G(add 7) 
   We'll see 

F#m      G(add 7) 
   We'll see 

F#m      G(add 7)  G# 
   We'll see 


e ------------------- 
B ------------------- 
G -----------6^--6^-- 
D -----7-5-----------
A ---------7--------- 
E ---5---------------

------------------------------------------------------------------------------

Trailerpark
Lyrics, chords and tabs provided by me.

Freestyle 
Freestyle...45
Freestyle

     Am
I'm a country boy, I have no soul


I don't sleep at night, the world's growin' old


I lost my girl to a rolling stone

  Em
I lost my girl to the rolling stones


Chorus:

    Dm		    Am			    Fm		  Em	
E --1-0---------------0---------------------1-----1-------0-------0----
B --3---3-2-1-0---------1-0-----------------1-------------0---------0--
G --2-----------2-0-2-----------------------1---1---------0-0-1--------
D --0---------------------------------------3-3-----3-3/5-2------------
A --------------------------0-0-0-0-0-0-0-2-3-------3-3/5-2------------
E ------------------------------------------1-------1-1/3-0------------

(Solo)

Ending:

E -----------------------------------------------
B -----------------------------------------------
G --7777-7777-101010-9-99-7777-7777-101010-5-55--
D --7777-7777-101010-9-99-7777-7777-101010-5-55--
A --5555-5555--8-8-8-7-77-5555-5555--8-8-8-3-33--
E -----------------------------------------------


------------------------------------------------------------------------------

Caramel

Chords: Am	G	F

I've gotta get over
I've gotta get over
I've got to get better
Will love you forever
I've gotta find genius
I've gotta get better
I've gotta stop smoking
I've gotta get better

Caramel Caramel...

Where is the magic?
I've gotta get better
Oh lord give me magic
I'll love you forever
I've gotta find mounts hill
And live by the mountains
I'll love you forever
You are...And you are...

------------------------------------------------------------------------------

Trimm Trabb

A    Bb C   A   C Bb  F  Bb C   
  

A Bb  C  A     C Bb   F 
I got no style 

     Bb   C  A    C Bb  F 
I'll take my time 

Bb C   A    C Bb     F     Bb C  A   C Bb 
All us losers on the piss again 

  F     Bb C  A   C Bb  F 
I doze, doze away 
  

                Bb C   F 
That's just the way it is 

       G        A 
That's just the way it is 


     Bb   C    A 
I've got Trimm Trabb 

         F          A     Bb C 
Like the flash boys have 

A     G        A 
And I can't go back 

       F                   E       
Let it flow, let it flow 

F       G  F 
I sleep alone 

        G  F 
I sleep alone
  
------------------------------------------------------------------------------

No Distance Left to Run

D -------------------------
A -------------------------
F ---6/--------------------
C ---7/--------------------
G ---------9^--------------
D ------0------0--0-0---0--
  
  
D --7--7--7--7--7--7--7--7--7--5--4--2--4--2--7--7--7^9--7^9----
A --9--9--9--9--9--9--9--9--9--7--5--4--5--4--9--9--9----9------
F --------------------------------------------------------------
C --------------------------------------------------------------
G --------------------------------------------------------------
D --------------------------------------------------------------

D --7^9--7--------7----7--7--7----------------------------------------------
A --9-------9-------8--7--7--7------5--8---1--1-1-----------------------9^--
F -------------8-------8--8--8--2-2-6--9---0--0-0---------------------------
C ------------------------------2-2-7--10------------6/---------------------
G ------------------------------0-0-0----------------7/----9^-9^-9^-9^------
D -------------------------------------------------0-----0------------------

D -------------------------------------------------------------------------
A -------5---------5-------7---7---5----------5---------5-------7---7---5--
F ----6--6--4---6--6--4----7---6---4-------6--6--4---6--6--4----7---6---4--
C -------------------------------------------------------------------------
G -------------------------------------------------------------------------
D -------------------------------------------------------------------------


It's over
You don't need to tell me
I hope you're with someone who makes you 
Feel safe in your sleeping tonight
I won't kill myself, trying to stay in your life
I got no distance left to run

When you see me
Please turn your back and walk away
I don't want to see you 
Cos I know the dreams that you keep is wearing me
When your coming down, think of me here
I got no distance left to run

It's over, I knew it would end this way
I hope you're with someone who makes you feel
That this life is the night
And it settles down, stays around
Spends more time with you
I got no distance left to run