"Bad Day" (From the album "Leisure")
Provided by Steve  <shunnie@callisto.uwinnipeg.ca>
Corrections by me.

Intro: D

D
Do you do anything you do? 

C* A   D	A  **
No she said 

D
Do you want anything you ever wanted?

C* A   D	A  **
No she said 


* fill 1	        ** fill 2

e|-----------------     e|------------
B|-----------------     B|------------
G|-5-4-2-0---------     G|--h-p-------
D|---------3--4-5--     D|-5-7-5-7-5--
A|-----------------     A|------------
E|-----------------     E|------------


D   A          D
She don't know how 

A      D
How to feel 

A         D
This is a bad day

A         D
This is a bad day

   C***
To know 


*** fill 3

e|--------------------
B|--------------------
G|---------0---0---2--
D|-------2---2---0----
A|-----3--------------
E|-5-7----------------


D
Do you have anything you ever had?

C* A   D	A  **
No she said

D
Do you love anyone you ever loved?

C*  A   D	A  **
Yes she said


Middle:

e|--------------------------      
B|--------------------------      
G|--------------------------      
D|-4---4---5---5---5---5---- 4x    
A|---5---5---4---4---4---4--      
E|--------------------------     


This is to feel lost in your world

Solo:

e|--------------p---------     -------------p-----p-----
B|-------------8-6----6---     ------------8-6---8-6----
G|-7-5---p--5------77-----     -7-5--p--5------7-----7--
D|------7-5-3------------- 3x  -----7-5-3---------------
A|------------------------     -------------------------
E|------------------------     -------------------------