"Best Days" 

Intro

   C              G                  Ab             F

e--------3----------------3------------------4---------------1-
B--------1----------------3------------------4---------------1-
G-----0------0--------4--------4-------------5---------------2-
D-----------------------------------------6---------------3----  2x
A--3-----------------------------------------------------------          
E----------------3-------------------4--------------1----------


Verse

   C                  Am            C                   Am
e------------------------------------------------------------------
B--------1-------1----0-1-0----------------1------------0-1-0-1----
G--------0-------0----------2----0---------0---------0-------------
D----2---2---2---2------------2--------2---2---2---2------------2--
A--3-----3-------3------------------3------3-----------------------
E------------------------------------------------------------------

   Dm           Dm/C                  G                Dm      

e--------1---------------1-----------------------------------1-----
B--------3---------------3-----------------------------------3-----
G-----2------2-------2-------2-----------0----------------2-----2--
D--0---------------------------------0-------------0---0-----------
A----------------3---------------------------0h2-------------------
E--------------------------------3---------------------------------

   Dm/C        F                              G

e------1----------1-----------------------------------------------3----
B------3----------1-------------------------------3-----------------3--
G----2---2--------2----0h2p0-------0---0h2/4-----------4h5p4-----------
D-----------------3-----------3---------------5---------------5--------
A--3-------------------------------------------------------------------
E--------------1-------------------------------------------------------


Chorus

    C             C/B              Am7             Ab              
e----------0---------------0---------------3----------------------
B----------1---------------1---------------1-------------------4--
G------0-------0-------0-------0-------2-------2-----------5------
D------------------------------------------------------6----------
A--3---------------2---------------0------------------------------
E--------------------------------------------------4--------------

   G      F              Ab      G
e-----3-------------------------------------
B-----3---------1------------4-------3------
G-----4---------2------------5-------4------
D---------------3--3---------6-------5------
A------------3---------------6-------5------
E--3------1--------------4-------3----------


Solo

e--20\19-19\17-17\15-15------------------------------------------
B----------------------16-16\15-15\14-14-------------------------
G---------------------------------------16-16\14-14\12-12\10-10\-
D----------------------------------------------------------------
A----------------------------------------------------------------
E----------------------------------------------------------------


e--------------------------------------------------------------
B------------------------------------------0-1-0-1-------------
G--9-9\7-7\5-5\4-4---------------------------------2-----------
D-----------------5-5-2-3-5-5\3-3\2-2----------------0---------
A------------------------------------5-5\3---------------------
E--------------------------------------------------------------