Blur-Coffee & T.V.

This intro is almost as the one 13:
e/----------------------
B/----------------------
G/-----5---3-7-10-12-9--
D/---5---7--------------
A/-5--------------------
E/----------------------

In the song there are a few guitar fills:
GUITAR FILL 1:
e/-----------------
B/-----------------
G-4-4-4-6-8--------

GUITAR FILL 2:
e/-----------------
B/-12-10-9-5-------
G/-----------------

Graham play some strange chords during the verses. I saw the chords 
in a live gig that I recorded. But I'll write 13 after the chords. 
Here they are in the right order:                  
B13:  A13:     G13:    A#13:  C#
 7      5   E    3   F   6       
 6      4        2       5     
 0      0        0       0     
 8      6        4       7      
 x      x        x       x        
 x      x        x       x     


Verse 1:
B
Do you feel like a chain store?
A           E
Practically floored
G           F
One of many zeros
A#            C#           
Kicked around bored
B
Your ears are full, but you're empty
A                E 
Holding out your heart
G                   F
To people who never really
A#           A
Care how you are   (GUITAR FILL 1)

(Chorus)
           C#m      
So give me Coffee & TV
B     A  (Graham plays B13)
History
    (GUITAR FILL 2)
     C#m 
I've seen so much
    E 
I'm going blind
        A               B(B13)
And I'm braindead virtually
     C#m
'Cos Sociability
     B(B13)          A
It's hard enough for me
                     (GUITAR FILL 2)
C#m                    E
Take me away from this big bad world
    A              D
And agree to marry me
                A
So we can start over again

Verse 2:
B
Do you go to the country?
   A          E 
It isn't very far
G                       F
Those people there will hurt you
A#              C#
'Cos of who you are
B
Your ears are full of the language
        A                   E
There's wisdom there you're sure
G                    F
'Til the words start slurring
A#                     A
And you can't find the door (GUITAR FILL 1)

(Chorus) 
           C#m      
So give me Coffee & TV
B     A  (Graham plays B13)
History
    (GUITAR FILL 2)
     C#m 
I've seen so much
    E 
I'm going blind
        A               B(B13)
And I'm braindead virtually
     C#m
'Cos Sociability
     B(B13)          A
It's hard enough for me
                     (GUITAR FILL 2)
C#m                    E
Take me away from this big bad world
     A              D
And agree to marry me
                A
So we can start over again 

Solo:
e/----------------------------------------------------------
B/----------------------17~~-15~~---------------------------
G/-16~~-----------------------------------------------------
D/------16h18-19--14~~-----------15b17--15------------------
A/----------------------------------------------------------
E/----------------------------------------------------------

e/----------------------------------------------------------
B/----------------------------------------------------------
G/-------------9-11-9b11-11-9--4~~-4~~-7~~-9~~--4-4-4-6-8---
D/-5b7--7-9h11----------------------------------------------
A/----------------------------------------------------------
E/----------------------------------------------------------

(Chorus)
           C#m      
So give me Coffee & TV
B     A  (Graham plays B13)
History
    (GUITAR FILL 2)
     C#m 
I've seen so much
    E 
I'm going blind
        A               B(B13)
And I'm braindead virtually
     C#m
'Cos Sociability
     B(B13)          A
It's hard enough for me
                     (GUITAR FILL 2)
C#m                    E
Take me away from this big bad world
      A              D
And agree to marry me
                A
So we can start over again

e/-----------------------------
B/-----------------------------
G/----------------------------- This is played after Graham sings 
D/----------------------------- "Aah, we can start over again"
A/-6-7-6-7-9-7-6--6-7-6-7-6----
E/-----------------------------

D                 A           B
Aah, we can start over again
D                 A           B
Aah, we can start over again    
D                 A           B
Aah, we can start over again
D                 A           B
Aah, we can start over again