Colin Zeal-Blur

intro and verse riff. -> Dm and Am.

Intro and verse:

E ---------p----------p----------p----------p---
B -6xx6xx-6-5-6xx6xx-6-5-6xx6xx-6-5-6xx6xx-6-5--
G -7xx7xx-7-5-7xx7xx-7-5-7xx7xx-7-5-7xx7xx-7-5--
D ----------------------------------------------
A ----------------------------------------------
E ----------------------------------------------

Intro lead:

E ----------------------------------
B ----------------------------------
G -----2-0-------5-5-5-5-5-5-5-4-2--
D ---------2---0-3-3-3-3-3-3-3-2-0--
A -0-3-------3----------------------
E ----------------------------------


Chorus:

E ----------------------------------5--------    -------------------------
B ----------------------------2-3-2---2-3-2--    -------------------------
G --4-4-444-----------------2---------------- 2x --444---444---444--------
D --4-4-444-5-5-555-3-3-333-2----------------    --444-5-444-5-444-5-5-8--
A --2-2-222-5-5-555-3-3-333-0----------------    --222-5-222-5-222-5-5-8--
E ----------3-3-333-1-1-111------------------    ------3-----3-----3-3-6--

Bm           G              F         A
Looks at his watch, he's on time, yet again

Bm           G              F         A
Looks at his watch, he's on time, yet again

     Bm           G           Bm           G
He's pleased with himself, so pleased with himself, 

     Bm           G          Bb
He's pleased with himself ah ha...


Solo:

E ----------------------------------5---------------------------------------------------
B --------------------5-3-----2-3-2---2-3-2------------------5-3---10^-10^-10^-10^-10^--
G ------------------------2-4------------------------------------2----------------------
D --/9-9-9-7^-5-7-8-3-----------------------9-9-9-7^-5-7-8-3----------------------------
A ------------------3--------------------------------------3----------------------------
E ------------------1--------------------------------------1----------------------------