Commercial Break-Blur

Two riffs are used at the beginning of the song, these are:

~~~ = vibrato

E------------12--10-------
B--------------------9~~~-
G---7--8--9---------------
D-------------------------
A-------------------------
E-------------------------

and

E------------7-----------
B---------------10--9~~~-
G---7--8--9--------------
D------------------------
A------------------------
E------------------------

Then after lots of noise you get:

C  Ab  C  Ab

Em B Em B

Easiest to play these as:

C	x35553
Ab	466544
Em	x79987
B	799877

After this you get these chords in quick succession:

B Eb A Db C Gb B  x2

Play these as:

B	799877
Eb	x68886
A	577655
Db	9 11 11 10 9 9
C	8 10 10 9 8 8
Gb	x 9 11 11 11 9

http://www.sparkystabs.co.uk