Blur-Country House

Chords: E    e      
A       x02220
E       022100
Bm      799777
D       10 12 12 11 10 10
D/C#    9  12 12 11 10 10
C#7     9  11 11 10 9  9
E7      xx2434
Eb7     xx1323
D7      xx0212
Ab      xx111x

Intro:
-----
    N.C                                        A                 E
e-|--------------------|---------------------|-------0---0--0--|------0---0-0-|
B-|-2-2--1-1-----------|---------------------|-------2---2--2--|------0---0-0-|
G-|-----------4-4--3-3-|-2-2--1-1--0---------|-------2---2--2--|------1---1-1-|
D-|--------------------|-------------2-p1-p0-|-------2---2--2--|------2---2-2-|
A-|--------------------|---------------------|-0--0------------|--------------|
E-|--------------------|---------------------|-----------------|-0--0---------|

    Bm                            D             D/C#          C#7
e-|-------------|---------------|---------10---|-------10---|-------9----9---|
B-|-------7-----|--7------7-----|---------10---|-------10---|-------9----9---|
G-|-------7---7-|--9p7--7-9p7---|---------11---|-------11---|-------10---10--|
D-|-------9-----|--9------9-----|--------------|------------|----------------|
A-|-------------|---------------|--------------|------------|----------------|
E-|-7--7--------|---------------|-10--10-------|-9--9-------|-9--9-----------|

e-|----------------------|
B-|----------------------|
G-|---9--11p9------------|
D-|------------11--9h11--|
A-|----------------------|
E-|----------------------|

Verse1:
------
    A                  E              Bm
   City dweller .....
e-|-------0-----0---|--------0------|------------7--------|------------------|
B-|-------2-----2---|--------0------|------------7--------|------------------|
G-|-------2-----2---|--------1------|------------7------7-|-9p7---7-9p7------|
D-|-------2-----2---|--------2------|------------9--------|-----9-------9-p7-|
A-|-0-0-------------|---------------|---------------------|------------------|
E-|-----------------|--0--0---------|-7---7---------------|------------------|

    D              D/C#                C#7
     Caught   ....
e-|--------10----|---------10--------|-------9----9--|--------------------|
B-|--------10----|---------10--------|-------9----9--|--------------------|
G-|--------11----|---------11--------|-------10---10-|--9-11p9------------|
D-|--------------|-------------------|---------------|---------11-9h11----|
A-|--------------|-------------------|---------------|--------------------|
E-|-10--10-------|--9---9------------|-9--9----------|--------------------|

    A                   E                    Bm
 .........
e-|-------0-------0---|-------------0-------|-----------------7--------|
B-|-------2-------2---|-------------0-------|-----------------7--------|
G-|-------2-------2---|-------------1-------|-----------------7------7-|
D-|-------2-------2---|-------------2-------|-----------------9--------|
A-|-0-0---------------|---------------------|--------------------------|
E-|-------------------|--0------0-----------|--7--------7--------------|

   life at the limit   
e-|------------------|
B-|------------------|
G-|-9p7---7-9p7------|
D-|-----9-------9-p7-|
A-|------------------|
E-|------------------|

    D               D/C#                C#7               E
     caught up .....
e-|-------10-------|---------10--------|-------9--------|----------0---0-0---|
B-|-------10-------|---------10--------|-------9--------|----------0---0-0---|
G-|-------11-------|---------11--------|-------10-------|----------1---1-1---|
D-|----------------|-------------------|----------------|----------2---2-2---|
A-|----------------|-------------------|----------------|--------------------|
E-|10-10-----------|--9---9------------|-9--9-------9\--|--0----0------------|

   E
           He's     .....
e-|-------0---0--0-|---------0--0-0-|--------0--0-0-----|
B-|-------0---0--0-|---------0--0-0-|--------0--0-0-----|
G-|-------1---1--1-|---------1--1-1-|--------1--1-1-----|
D-|-------2---2--2-|---------2--2-2-|--------2--2-2-----|
A-|----------------|----------------|-------------------|
E-|-0--0-----------|-0---0----------|-0---0-------------|

Chours:
------
 A                                       E7          
lives in a house .......
Eb7             D7                                                     A
      Watching ......
A                                                               E7           
He takes ......
     Eb7               D7                                      A      Ab  
oh___   It......

Verse2: (same as Verse1)
------
          A                 E                        Bm
D          D/C#              C#7 
         A            E             Bm
                                      E
Now he...
[Repeat Chorus]

Break:
-----
E
In the country,  ......

Solo:
----
    A                               E                Bm
e-|---------------------------------|-16b16.5---16--|-14\-------------|-------|
B-|-------------------------8/10/14-|---------------|-----------------|-------|
G-|---------------------------------|---------------|-----11\-/11--8/-|11---11|
D-|----------------11h12/14---------|---------------|-----------------|-------|
A-|--------9h11/12------------------|---------------|-----------------|-------|
E-|-5h7-/9--------------------------|---------------|-----------------|-------|

    D            D/C#                C#7          A
e-|-12----12--|-12--10-10p9-9-------|----------|------------------------------|
B-|-----------|---------------12-9--|-12---9\--|------------------------------|
G-|-----------|---------------------|----------|----------------------11/12/14|
D-|-----------|---------------------|----------|--------------11h12/14--------|
A-|-----------|---------------------|----------|-------9h11/12----------------|
E-|-----------|---------------------|----------|-5h7/9------------------------|

    E                      Bm
e-|-----------------14/--|-17-----16---14---|-14h16p14-12h14p12----------|
B-|-14\------------------|------------------|-------------------15---17--|
G-|------/10---11/-------|------------------|----------------------------|
D-|----------------------|------------------|----------------------------|
A-|----------------------|------------------|----------------------------|
E-|----------------------|------------------|----------------------------|

    D                D/C#           C#7
e-|--------19------|--------------|------------------|-----------|
B-|-17---------17--|--17\---------|------------------|-----------|
G-|----------------|--------9/----|------------13/14-|-----------|
D-|----------------|--------------|-11-\4-/11--------|-----------|
A-|----------------|--------------|------------------|-12----\---|
E-|----------------|--------------|------------------|-----------|

Bridge:
------
 A                E              D                   A
Blow, blow me out,   I am so sad    I don't know why
(repeat)

[Repeat Chorus]

Chorus: (same but diffrent words)
------