Blur - Dan Abnormal

Intro
Bass then G7

A7  G7  A7  G7  x4

Verse
A7     G7     A7     G7
Meanie leanie come on down
A7     G7     A7     G7
Come and entertain the town
A7     G7     A7     G7
It's Friday night and we're all bored
A7     G7     A7     G7
Times been called there is no more
A7     G7     A7     G7
Times been called it's such a bore

Chorus
A      G     A          G
Dan Abnormal not normal at all
F#      D              B7
It's not his fault we made him this way
      A  G        A      G
He'll imitate you try to ape you
F#             D       B7
But it's not his fault Dan watches T.V.

Verse
The Meanie leanie stays up late
Mopes areound gets in a state
He the killer in your arcade
Killing gangstas ready made
Cause that is where the futures made

Chorus

w/verse chords
Teleport me

Middle
F#                    D
Dan went to his local burger bar
       C
I want McNormal and chips
           Bb
Or I'll blow you to bits
G        A
Give us it

Solo
 A7       G7                A7        G7                 A7        G7
-------------------------|----------------------------|--------------------------|
-------------------------|----------0--2----3----2----|--3S----5S----7b----7~----|
----------4--4~----4~----|--2~------------------------|--------------------------|
-------------------------|----------------------------|--------------------------|
-------------------------|----------------------------|--------------------------|
-------------------------|----------------------------|--------------------------|

  A7         G7            A7          G7            A7             G7
------------------------|-------------------------|-----10----11-10-11-10-10--L--10--|
--5~------3--3b------5--|--4--4--4--4--4--3----3--|--3-------------------------------|
------------------------|-------------------------|----------------------------------|
------------------------|-------------------------|----------------------------------|
------------------------|-------------------------|----------------------------------|
------------------------|-------------------------|----------------------------------|

  A7            G7              A7        G7
--8S-7-5--L--5--8S-7-5--L--5--|-------13b----15----15----|
------------------------------|--------------------------|
------------------------------|--------------------------|
------------------------------|--------------------------|
------------------------------|--------------------------|
------------------------------|--------------------------|

Verse
It's the miseries at half past three
Watching video nasties
He has dirty dreams wile he's asleep
Dan's just like you you see
He's the Meanie leanie

Chorus x2

A7  G7  A7  G7  x4  A7