Blur - Entertain Me

Whole song is one chord sequence

A   |   F  F7  |  C   |   G

Verse
The weekend is back
But so is he
Head to the floodlights
See the fraternity
They are waiting
I hear them up in the north
And down in the south
And all that is spewing
Spewing out of his mouth

Chorus
Entertain me

Interlude
E|---------------|-------------------|---------------|-------------------|
B|---------------|-------------------|---------------|-------------------|
G|---------------|-------------------|---------------|-------------------|
D|---------------|-----------0---1---|---------------|-----------1---2---|
A|-------0---2---|-3---2--0----------|-------0---2---|-3---2--0----------|
E|---------------|-------------------|---------------|-------------------|

---------------|-------------------|---------------|-----------------|
---------------|-------------------|---------------|-0-0-0-0-0-0-0-0-|
---------------|-------------------|---------------|-0-0-0-0-0-0-0-0-|
---------------|-----------2---3---|-(hold)--------|-3-3-3-3-3-3-3-3-|
-------0---2---|-3---2--0----------|---------------|-----------------|
---------------|-------------------|---------------|-----------------|

Verse
At his and hers dating
Bored minds agree
Requirements to be stated
Replies awaited
She wants a loose fit
He wants instant whip
He guesstimates her arrival
Will she want it really badly

Chorus x2
Entertain me

Interlude as above

Middle
A car, a house both in street
The boredom of the sober week
The weekend is here, hip hip hooray
To make the blues just go away

Chorus with Middle lyrics to fade (w/interlude 3rd and 4th times)
Entertain me