Blur - It Could Be You

Intro
     C          Bbsus4    A     G
e---------------------------5---3-3-3--- x4
B---------------------------5---3-3-3---
G----9--9--9----8-8-8-8s9---6---4-4-4---
D---10-10-10----8-8-8-----7-----5-5-5---
A---10-10-10----8-8-8-----7-----5-5-5---
E----8--8--8----6-6-6-------------------

Verse
            C           Bbsus4   A
Ch, Ch, Ch, Churchill
G             D        E7
Got his lucky number
                   Am      Am/G   D
Tomorrow there's another
         G            G aug
Could be me, could be you
   C              Bbsus4   A
No silver spoon
G                 D              E7
Sticky teeth they rot too soon
                       Am           Am/G   D
You've got to have the best tunes
          G                G aug
Or that's it, you've blown it

Chorus:      
F   E  A             D
All we want is to be happy
F  E   A                D
In our homes like happy families
F  E   C          Bb
Be the man on the beach
         Am           G
With the world at his feet
       D         E7
Yes, it could be you

     C          Bbsus4    A     G
e---------------------------5---3-3-3--- x2
B---------------------------5---3-3-3---
G----9--9--9----8-8-8-8s9---6---4-4-4---
D---10-10-10----8-8-8-----7-----5-5-5---
A---10-10-10----8-8-8-----7-----5-5-5---
E----8--8--8----6-6-6-------------------

Verse
The likely lads
Are picking up the uglies
Yesterday they were just puppies
Beery slurs, now life's a blur
Telly addicts
You should see them at it
Getting in a panic
Will we be there
Trafalgar Square?

Chorus

Middle
C  Bb Am  G  x7   D  E7

Verse
So don't worry
If it's not your lucky number
'Cause tomorrow there's another
Could be you, could be me

Chorus

     C          Bbsus4    A     G
e---------------------------5---3-3-3--- x3
B---------------------------5---3-3-3---
G----9--9--9----8-8-8-8s9---6---4-4-4---
D---10-10-10----8-8-8-----7-----5-5-5---
A---10-10-10----8-8-8-----7-----5-5-5---
E----8--8--8----6-6-6-------------------

     C          Bbsus4    A     G
e---------------------------5---3---- 
B---------------------------5---3----
G----9--9--9----8-8-8-8s9---6---4----
D---10-10-10----8-8-8-----7-----5----
A---10-10-10----8-8-8-----7-----5----
E----8--8--8----6-6-6----------------