"She's So High"
Provided by Tony Booth <sinister@netcomuk.co.uk>


Intro:

E --3--
B --3--
G --0--
D --2--
A --3-- 

Main:

E ------2--------h-p---
B ------3-------0-1-0--
G ----2---------------- 3x
D --0---------2--------
A --------0-3----------
E ---------------------

E ------------h-p----3---------------------
B ------2----2-3-2-3-----------------------
G ------2----------------------------------
D ----2---------------------0-----0-----0--
A --0------0------------0-2---0-2---0-2----
E --------------------3--------------------

D     C
I see her face 

D    C   D     C
Everyday I see her face 

A               C
It doesn't help me 

D   C
See her face 

D  C     D     C
Everyday I see her face 

A	        C
It doesn't help me 


D     C  
She's so high (x3) 

A		    C
I want to crawl all over her 


D       C
I think of her 

D   C    D       C
Everyday I think of her 

A               C
It doesn't help me 


Middle:

D	C   (repeat)

A	C	A	G

D           E    A
She doesn't help me (x3) 

*************************************************************************

"There's No Other Way" 
Provided by Francis Booth <sinister@netcomuk.co.uk>


E ---------------------------5-5---|
B -(5)-/12-14-12-12\-3-----5-5-5---|
G -(5)-/12-14-12-12\-3-000-5-7-6---|
D ---------------------------7-7---|
A ---------------------------------|
E ---------------------------------|
 
Verse:

   E       D               B    D
E ----0--|--------------|---2--|-2-----------|
B ----0--|-3-3-2-h3-p2--|---4--|-3--2-h3-p2--|
G ----1--|-2-2----------|---4--|-2-----------|
D -2--2--|-0-0----------|---4--|-0-----------|
A -2-----|--------------|---2--|-------------|
E -0-----|--------------|------|-------------|

Chorus:

E (bar chord: [fr.7])
D (bar chord: [fr.5])
G (bar chord: [fr.3])
A (bar chord: [fr.5])
G (frets: 3,2,0,0,0,3)
A (frets: x,0,2,2,2,0)
E (frets: 0,2,2,1,0,0)

E ------------------------------|
B -3-p0-h3--------------2-h3-p2-|
G ---------4-0-4-0-h2-2---------|
D ------------------------------|
A ------------------------------|
E ------------------------------|

Ending:

E -7-7-7-7--7-7-7-7--5-5--5\--2-2--7-7--|     -7--
B -9-9-9-9--9-9-9-9--7-7--7\--4-4--7-7--|     -9--
G -9-9-9-9--9-9-9-9--7-7--7\--4-4--7-7--|     -9--
D -9-9-9-9--9-9-9-9--7-7--7\--4-4--7-7--| 4x  -9--
A -7-7-7-7--7-7-7-7--5-5--5\--2-2--5-5--|     -7--
E --------------------------------------|     ----

************************************************************************

"Bang"


Main:

e -------------------------
B ------------------4------
G ----------------4---4----
D -----h---h--2-4-------4--
A --2-0-2-0-2--------------
E -------------------------


B		     A		    E
Sitting in an S.D.T. waiting for an underground train

	 		B
To rumble underneath my feet

B		       A	       E	
Bang goes another day, where it went I could not say

                          B 
Now I have to wait another week

B  			  	 A	  	   E
But all is said and all is done, what was said was never done

				       B	
Don't panic it's not really worth your while

B			A	   E
Bang goes another year, in and out of one ear

			  B
Everybody's doing it so...do it too



A	     C# B     A					  E
I don't need anyone...but a little love would make things better



B			  A		      E
Sitting on the early bus, passing through the morning rush

				    B	 
It makes no difference that I'm not...with you

B			A	   E
Bang goes another year, in and out of one ear

			  B
Everybody's doing it so...do it too


B         A         E        B
Ahhhhhhhhhhhhhhhhhhhhhhhhhhhhhhhhhhhhh 2x

*********************************************************************

"I Know" 
Chords provided by Coreii (coreii@itb.it) and me


Intro:

E ---------------6--7---
B --4-6----x-x-x-7--8---
G ----------------------
D ----------------------
A ----------------------
E ----------------------


Verse:

E -----------------------------------------
B --6------------p-------------------------
G -------------11-9-h----------------------
D -------------------11--9-11---11--11-11--
A -----------------------------------------
E -----------------------------------------

F...
What you want to be is what I am
How you want to feel is how I feel
But nothing stays the same when I am here
Just waiting for it all to disappear


C#		  B		    C#	  F#
I know, I know, I know it'll come between us

C# F#   C# F#
I know, I know

F...
I'd like to get into that pretty head
Just to see, to see if you are dead
And it would amuse me just to see how
How you feel about me and this crowd


E ----------------------------
B --9--7--9-----9---11-12-11--
G ----------6-----------------
D --6--4--6-----6----8--9--8--
A ----------4-----------------
E ----------------------------

**********************************************************************

"Slow Down"
Provided by Van Vekris <3EV1@QUCDN.QUEENSU.CA>


|---3---3---------0---------    -----0--0----------0----    -------------------
|---0---0--h3p0---1---h3p1--    -----2--2--h3p2----1----    -------------------
|---0---0---------0--------- x2 -----2--2----------0---- x2 ---2/4-------------
|---0---0---------2---------    -----2--2----------2----    ---------5---------
|---2---2---------3---------    -----0--0----------3----    -------------------
|---3---3-------------------    ------------------------    --1st time only----
      G           C                   A            C

                                      Note:  h = hammer on    p = pull off


G          C   G           C   A                 C    A              C
Its up to you, you know it is, I can't convince you, all you have to do is

     G
slow down...



G           A#       C      F       F     Ab     Eb    A#
aahhhhhhhh, ooowooo oooooo oooooo, ooooo oooooo ooooo ooooo

*******************************************************************

"Bad Day" 
Provided by Steve <shunnie@callisto.uwinnipeg.ca>
Corrections by me.

Intro: D

D
Do you do anything you do? 

C* A   D	A  **
No she said 

D
Do you want anything you ever wanted?

C* A   D	A  **
No she said 


* fill 1	        ** fill 2

e|-----------------     e|------------
B|-----------------     B|------------
G|-5-4-2-0---------     G|--h-p-------
D|---------3--4-5--     D|-5-7-5-7-5--
A|-----------------     A|------------
E|-----------------     E|------------


D   A          D
She don't know how 

A      D
How to feel 

A         D
This is a bad day

A         D
This is a bad day

   C***
To know 


*** fill 3

e|--------------------
B|--------------------
G|---------0---0---2--
D|-------2---2---0----
A|-----3--------------
E|-5-7----------------


D
Do you have anything you ever had?

C* A   D	A  **
No she said

D
Do you love anyone you ever loved?

C*  A   D	A  **
Yes she said


Middle:

e|--------------------------      
B|--------------------------      
G|--------------------------      
D|-4---4---5---5---5---5---- 4x    
A|---5---5---4---4---4---4--      
E|--------------------------     


This is to feel lost in your world

Solo:

e|--------------p---------     -------------p-----p-----
B|-------------8-6----6---     ------------8-6---8-6----
G|-7-5---p--5------77-----     -7-5--p--5------7-----7--
D|------7-5-3------------- 3x  -----7-5-3---------------
A|------------------------     -------------------------
E|------------------------     -------------------------

********************************************************************

"High Cool"
Provided by Steve Hunnie <shunnie@callisto.uwinnipeg.ca> and me.


Intro:           

e|----------------    
B|----------------    
G|------9------7--  
D|----9------7----    
A|--7----x-5------   
E|----------------   


Main:

e|---------------    
B|-----7---h--5--    
G|-----7--5-7----  
D|---------------   
A|--0------------ 
E|---------------   


Verse:

e|---------------    ------0-----2--
B|-----7---h--5--    ----0-----1----
G|-----7--5-7---- 3x --1-----2------
D|---------------    ---------------
A|--0------------    ---------------
E|---------------    ---------------

A
When you come here which you sometimes do 

		 E	  D7       A
Don't think that I really want you to

A
And if you come here which you always do 

		 E   D7       A	
Don't think that I expect you to


Chorus:

e|-------------------------------------12-10-10-10----------12-10-10-10--
B|-----------h---p-------------------------------------------------------
G|--7-7--h--5-7-9-7--7-7-7-7---p---p-----------------p---p---------------
D|------5-7-------------------9-7-9-7---------------9-7-9-7--------------
A|-----------------------------------------------------------------------
E|-----------------------------------------------------------------------

D             A        
Is that all I give you (2x)



A
And you talk too much which you always do 

		 E	  D7       A
Don't think that I really want you to

A
And if you talk too much which you always do

		 E	  D7	   A
Don't think that I really need you to


Middle:

e|-----    --5--    
B|-----    --5--    
G|--2--    --6--  
D|--2-- 8x ----- 8x  
A|--0--    -----
E|-----    -----


A
AhAhAhAhAh Ah Ah

***********************************************************************

"Come Together"
Chords provided by Steve <shunnie@callisto.uwinnipeg.ca>
Corrected by me.

Intro:

e|-------3333--
B|-------3333--
G|-1--1--4444--
D|-2--2--5555--  8x
A|-2--2--5555--
E|-0--0--0000--


E...
I don't understand 
You're walking all over me 
All over me to you 
Well you must be mad 
And you know you are 			 ...E
You should have known I'd do anything for you 


   G    A   B        E      G A     E
So why, why can't we come together, why

G    A   B        E      G A     E
Why, why can't we come together, why


E...
Inside my head 
There's nothing left 
It's all been taken out by you 
And do I care? Well you know I do        ...E
You should have known I'd do anything for you 


E...
So it's been said, and you know it all  ...E
You should have know I'd do anything for you

A	E	G	E	A
For you 

**********************************************************************

"Repetition" 


E --0-0-0-0--0-0-0-0--0-0-0-0--0-0-0-0------------------
B ------------------------------------------------------
G ------------------------------------------------------
D ------------------------------------------------------
A ------------------------------------------------------
E ------------------------------------------------------

    	     (switch pick up on & off)   End of verse
E ----------------------------           ----------------
B -----------5-5-5-5-5-5-5-5--           ----------------
G --6--(6)^------------------- 		 -8^-^-^-^-------
D ---------------------------- 		 -----------5-6--
A ----------------------------		 ----------------
E ----------------------------		 ----------------

A      G E
So sure, so sure you are

A   G	    E
Nothing can touch you now

A	  G    E
I need to know did you think of me

A   	      G		E
But you've forgotten me now

A    G     E
Slow down, don't be so

A     G  E
Eager to let me go

A  G    E
Realize it could change you

A        G           A
It could change your mind


E   F#  A
Try try try 

E   F#  A
Try try try

B	     G	      A
All things remain the same

B      G   A		    
So why try again-ain-ain-ain

 E   F#  A
-ain-ain-ain

     E    F#  A		G (after 2nd chorus)
Try again-ain-ain

**********************************************************************

"Fool" 


D	    Em		G
Sorry but I don't understand

    D		        Em	G
The things you say they make no sense at all

D	    Em		   G		      D
Funny but I think that you mean them all this time 

         Em    G
don't you


  D  	 	G	    Em    
I know that you think I'm a fool

G   	     D          G	  Em
But couldn't you try to forgive a fool

	 G
One more time


D	      Em	 G
Sorry but I'm not really listening

     D	         Em	      G
I've got my mind on something else

D 	    Em		  G
Sometimes I wonder if I'm here

       D   	  Em   G
If I'm here at all


  D		G	   Em       G
I know that you want me to go don't you

         D 	G       Em       G
But it's not as easy as it seems

  D		G	      Em      G
I know that you think I'm not here at all

        D       G         Em
But I'm just as fed up as you


Middle:

D	G G	D	A A --
			     | 2x
B	D A A		    --

G	F#  E


  D	        G	 Em    G
I know that you want me to leave

     D		  G	   Em     G  
I'm amazed at how cold you can be

	    D	       G     Em        G
Well may my weak and insipid soul grow stronger

        D          G  Em  G
In your abscence


Ending:

G  A  B

************************************************************************

"Birthday" 


Intro: E  F# (single notes vary in chords)


E		  C	 Am
It's my birthday  no one here day

A		  B
Very strange day  I think of you day

E	   	C      Am
Go outside day  sit in park day

A		   B	      
Watch the sky day  what a pathetic day

A					  B
I don't like this day it makes me feel so small

(middle: repeat verse chords)

A					      B
I don't like these days they make me feel too small

Electric (distortion):  D --2---4--
	   		A --2---4--
		        E --0---2--

***********************************************************************

"Wear Me Down" 
Provided by Steve <shunnie@callisto.uwinnipeg.ca>
Corrections by me.


Intro:

e|----------------------     
B|----------------------     
G|-------------p--------     
D|-----1------3-1-3^-1--       
A|-3-3------3-----------       
E|----------------------    

Verse:

e|----------------------------
B|----------------------------
G|-5-5---p-h--------5-555555--
D|-6-6--7-5-7--5-7--3-555555--
A|-6-6--------------3-333333--
E|-4-4------------------------



G#    Bb     C
Every time I come here 

    G#       Bb      C
I'm not sure what to say 

  G#      Bb        C
I know it should be easy 

       G#    Bb         C
But it never seems that way 


G#       Bb      C
You, you make me feel 

     G#     Bb   C
Like no one ever will 

   G#       Bb     C
So why, why do you bore me 

  G#     Bb       C
Until my heart is still 



Eb               Bb                    Dm
You, you wear me down, my defenses are gone now 

    C
And I can't fight


  G#          Bb       C
I can't say I love you easily 

    G#           Bb      C
But you wouldn't want me to 

       G#     Bb       C
So I'd rather just say nothing 

    G#       Bb    C
And leave it up to you 


          G#   Bb    C
Then it's easy to forget 

       G#      Bb       C
You're just as small as me 

          G#   Bb    C
Then it's easy to forget 

       G#      Bb         C
You're just as foolish as me 


Middle:

e|-------------------------------------------------------------------------
B|----------------p--------p--------------------------p--------p-----------
G|--11^-11^-10--10-8-----10-8--------11^-11^-10--10-8-----10-8----11^-13^--
D|-------------------10-------10--10-------------------10-------10---------
A|-------------------------------------------------------------------------
E|-------------------------------------------------------------------------

e|---------------------------------------------------------
B|----------------p--------p--------------------11^-13^----
G|--11^-11^-10--10-8-----10-8--------11^-11^----------11^--
D|-------------------10-------10--10-----------------------
A|---------------------------------------------------------
E|---------------------------------------------------------


End:
                     
e|---------------------------------------------------------------
B|------------------------------------------------------11^-13^--
G|-11^(x14)--11^11^11^11^11^11^11^11^11^11^11^11^11^11^----------
D|---------------------------------------------------------------
A|---------------------------------------------------------------
E|---------------------------------------------------------------

                        
e|-------------------------------------------------------
B|------------------------------------------11^-13^------
G|-11^(x10)--11^11^11^11^11^11^11^11^11^11^---------11^--
D|-------------------------------------------------------
A|-------------------------------------------------------
E|-------------------------------------------------------

**********************************************************************

"Sing" 
Chords provided by Maria Reilly <Reilly@btinternet.com>


Intro: Em   A   Bm   A


        Em	A  Bm  A
I can't feel

          Em	A  Bm  A
Cause I'm numb

        Em	A  Bm  A
I can't feel

          Em	A  Bm  A
Cause I'm numb

	      Em	A  Bm  A
So what's the worth

	  Em	A  Bm  A
In all of this

	      Em	A  Bm  A
So what's the worth

	  Em	A  Bm  A
In all of this


G (16x)

F		  G
Ahhhhhhhhhhhhhhhhhhhhh (4x)

C
Sing, sing to me


	      Em	A  Bm  A
So what's the worth

	  Em	A  Bm  A
In all of this

       Em            A	   Bm	A
If the child in your head

       Em	A	Bm   A
If the child is dead