Blur-Magic America 

Intro:
      C#      B       F#      G#7
E--------------------------0-(4)--------
B-------6-------4----(2^4)-0--4---------
G---------6-------4---2^4-----5---------
D-----------6\4-----4(2^4)----4---------
A-----4-------2---------------6---------
E----------------------------(4)--------
beats 1 2 3 4 1 2 3 4 1 2  3  4 1 2 3 4
bars  1       2       3         4

Verse1:
      C#~Bb~F#~          C#~Bb~Eb~
E----------(2)-----(x^0)-------------------------- \
B-----6--3--2-------5^0--6--3--8--7^8-8---7/8-8--- |
G-----6--3--3--2^4-(x^0)-6--3--8--7^8-8---7/8-8--- | SECTION
D-----6--3--4------------6--3--8--7^8-8---7/8-8--- |    V1
A-----4--1--4------------4--1--6------------------ |
E-----------2------------------------------------- |
beats          1 2  3 4           1 & 2 & 3 & 4 &  |
bars  1  2  3  4         5  6  7  8                /

C#     Bb          F#                C#       Bb       Eb
  Bill Barret has a simple dream, he calls it his plan B

      C#~Bb~F#~          G#                      
E----------(2)-----(x^0)-------------11-------12-------11-------7--------
B-----6--3--2-------5^0-----14------(13)-----(13)-----(13)------9--------
G-----6--3--3--2^4-(x^0)-13-------13-------13-------13------10bu---------
D-----6--3--4------------------------------------------------------9 ^10-
A-----4--1--4------------------------------------------------------------
E-----------2------------------------------------------------------------
beats          1 2  3 4  1  2  3  4  1  2  3  4  1  2  3  4  1  2  3  4
bars  1  2  3  4         5           6           7           8

                C#               Bb          F#
Where there are buildings in the sky and the air is sugar free

G#
And everyone's very friendly.


[SECTION V1 again]

     C#     Bb            F#        C#                Bb       G#
Well,  plan B arrived on a holiday, took a cab to the shopping malls

      C#~Bb~F#~          G#                                  .
E----------(2)-----(x^0)-------------11-------12----------8--8-----------
B-----6--3--2-------5^0-----14------(13)-----(13)---------9--9-----------
G-----6--3--3--2^4-(x^0)-13-------13-------13-------11^8-----------------
D-----6--3--4------------------------------------------------------------
A-----4--1--4------------------------------------------------------------
E-----------2------------------------------------------------------------
beats          1 2  3 4  1  2  3  4  1  2  3  4  1  2  3  4  1  2  3  4
bars  1  2  3  4         5           6           7           8

C#                  Bb          F#
Bought and ate 'til he could do neither anymore.

G#
Then found love on channel forty-four


Chorus:                                                  1______ 2___________
         C#~B~~A         A/G#      F#m       F#m/E       | B~~~  | B~  A G#
E----|  -----------------------------------------------  | ----- | ----5-4---
B----|o -6--4------------------------------------------ o| 4---- | 4---5-4---
G----|  -6--4------2-4^2-----2-4^2-----2-4^2----(2)4^2-  | 4---- | 4---6-5---
D----|  -6--4----2---------2---------4--------(4)------  | 4---- | 4---7-6---
A----|o -4--2--0--------------------------------------- o| 2---- | 2---------
E----|  -----------------4---------2---------0---------  | ----- | ----------
beats          1 2 3 4 & 1 2 3 4 & 1 2 3 4 & 1 2 3 4 &     1       1 1 2 3 4
bars     1  2  3         4         5         6             7 8     7 8

      C#~Bb~F#~  A G#
E----------(2)--------- \
B-----6--3--2---------- |
G-----6--3--3---(6-5)-- | SECTION
D-----6--3--4----7-6--- |   C2
A-----4--1--4----7-6--- |
E-----------2----5-4--- |
beats          1 2 3 4  /
bars  9  10 11 12

C#   B        A   A/G#    F#m           F#m/E   B
Laaa la la la laa,     he wants to go to magic america

C#   B        A   A/G#      F#m            F#m/E   B
Laaa la la la laa,     he'd like to live in magic america

 A   G#         C#           Bb F# A G#
With all those magic people


[Verse 2: same as second half of the first verse]

C#     Bb          F#               C#        Bb       Eb
Bill Barret sent his postcards home  to everyone he'd ever know,
            C#         Bb               F#
They read: "fifty-nine cents gets you a good square meal"
G#
 "From  the people who care how you feel"

[Chorus, but repeat SECTION C2 twice]

(And they talk like this)

Solo: (this is done on some keyboard or other, but with a bit of creative
'wah-wah'ing, you can create pretty much the same effect. the actual guitar
over the top is nearly the same picking as the intro. if you have any *major* 
problems with that, then feel free to write to me and i'll transcribe it)

         C#      B           F#      G#
E----|  ---------------------------------------------
B----|o ---6---6-7-6-7---9--(9-9)--------------------
G----|  -----6---------------9-9(9-9)----------------
D----|  -------------------------9-9---------5-6-7-8-
A----|o -----------------------------6-7-8-9---------
E----|  ---------------------------------------------
beats    1 2 3 4 1 & 2 & 3 4 1 2 3 4 1 & 2 & 3 & 4 & 
bars     1       2           3       4               

                            1_______________________ 2________________
      C#      B             |   F#      G#           | G#
E-------------------------  | ---------------------- |----------------
B-------6---6-7-6-7---9--- o| -(9-9)---(11-11)------ |-13-13----------
G---------6---------------  | --9-9(9-9)11-11(11-11) |-13-13-13-13---- 
D-------------------------  | ------9-9-------11-11- |-------13-13-13- 
A------------------------- o| ---------------------- |-------------11- 
E-------------------------  | ---------------------- |----------------
beats 1 2 3 4 1 & 2 & 3 4       1 2 3 4 1  2  3  4     1  2  3  4  1
bars  5       6                 7       8              7           8 

[Chorus, but repeat the first 8 bars 4 times instead of two 
with the first part at the end and the following tab included
occasionally]

      B~~
E-----------------
B-----4-------(4)- 
G-----4--(2^4)-4--
D-----4---2^4--4--
A-----2-------(2)-
E-----------------
beats   1 2 3  4
bars  7 8

[repeat section C2 4(?) times and then end on an F# and maybe
bend it a little]

      F#~~~~
E-----2-----
B-----2-----
G-----3-----
D-----4-----
A-----4-----
E-----2-----