Blur-Mellow Song 

In the verses Damon just plays on these strings in right order (E,D,G)

A G       A
I lift my street
      Bb     A
I'm a guillotine
G       A       
Pull it away
F     G
In my machine
F                 G
Forget where I've been
    D   A 
And not you

A        G           A
Shooting stars in my left arm
   Bb      A
An alcohol low
G         A         F   G       
Giving away time to Casio
      F      G
Where sun is slow
      D   A
And I got soul

C                 D
Is this where I'm going to?
F#m   G        F#m  G  F#m   G
     We'll see,             we'll see
F#m   G
     We'll see

A G         A     
I kill this sleep
        Bb         A
I'm the man on the moon
    G          A
I'm walking on sand
F              G 
On my own high noon
   F             G
In love with the moon
    D   A
And not you

     A G       A
'Cos I lift my street
      Bb     A
I'm a guillotine
G       A       
Pull it away
F     G
In my machine
F                 G
Forget where I've been
     D   A
I'll get you

C                 D
Is this where I'm going to?
F#m   G        F#m  G  F#m   G
     We'll see,             we'll see
F#m   G
     We'll see

 
Electric guitar enters like this:

e/----------------------------
B/----------------------------
G/--------------6h7-6h7------- Play this lots of times
D/----7-5---------------------
A/--0-----7-0------------------
E/----------------------------

C D then:

e/----------------------------                 
B/-10-9-------8-7-------------             
G/------11-9------9-7--------- 
D/----------------------------  4 times
A/----------------------------                
E/----------------------------             

Then:

e/-----------------------
B/-----------------------
G/-12-14~~---------------  
D/-----------------------
A/-----------------------                
E/-----------------------                

e/----------------------------
B/----------------------------
G/--------------6h7-6h7------- Play this lots of times
D/----7-5---------------------
A/--0-----7-0-----------------
E/----------------------------


or:
                                  
e/----------------------------
B/----------------------------
G/-------------12s14s7--------               
D/----7-5---------------------
A/--0-----7-------------------
E/----------------------------