Blur-Song 2

Verse
e----------------------------------
B----------------------------------
G----------------------------------
D--10-10-8--8-13-13-15-17-17-17-17-
A--8--8--6--6-11-11-13-15-15-15-15-
E----------------------------------

Chorus
e---------------------------------------
B---------------------------------------
G---------------------------------------
D-10-10-10-10-8-8-8-8-6-6-8-10-10-10-10-
A-8--8--8--8--6-6-6-6-6-6-8-10-10-10-10-
E-8--8--8--8--6-6-6-6-4-4-6-8--8--8--8--

Break
e----------------------------------------------------------
B----------------------------------------------------------
G-----------------------------------------6-6-6-6-6-6-6-6--
D-3--3--3--3--3--3--3--3--6-6-6-6-6-6-6-6-6-6-6-6-6-6-6-6--
A-3--3--3--3--3--3--3--3--6-6-6-6-6-6-6-6-4-4-4-4-4-4-4-4--
E-1--1--1--1--1--1--1--1--4-4-4-4-4-4-4-4------------------

Drums then verse x2

Chorus x4

Verse x4
I got my head checked 
By a jumbo jet 
It wasn't easy 
But nothing is, no 

Chorus x3
Whoo hoo! When I feel heavy metal 
Whoo hoo! And I'm pins and I'm needles 
Whoo hoo! Well I lie and I'm easy 
Break
All of the time and I'm never sure why I need you 
                Chorus x2
Pleased to meet ya 

Verse x4
I got my head done 
When I was young 
It's not my problem 
It's not my problem 

Chorus x3
Whoo hoo! Well I feel heavy metal 
Whoo hoo! And I'm pins and I'm needles 
Whoo hoo! Well I lie and I'm easy 
Break
All of the time and I'm never sure why I need you 
                Chorus x4
Pleased to meet ya 
Yeah, yeah 
Yeah, yeah 
Yeah, yeah 
Oh, yeah 

http://www.sparkystabs.co.uk