"Stereotypes" (Single, also on "The Great Escape")


Intro:

E --10--10--     --10--10---------------
B --10--10--     --10--10--7-7-7-7-7----
G ---8---8-- 4x  ---8---8--------------- 4x
D ---7---7--     ---7---7--4-4-4-4-4----
A ---9---9--     ---9---9---------------
E ---7---7--     ---7---7------------7--


Verse:

E --10--10---------------    --------------------------------
B --10--10--7-7-7-7-7----    ---------------2---2---2---2----
G ---8---8--------------- 2x -----44----44----4---4---4---4--
D ---7---7--4-4-4-4-4----    -----66----55--4----------------
A ---9---9---------------    --66----55-----4----------------
E ---7---7------------7--    --44----33-----2----------------


Pre-chorus:

E ---------------------------------
B ---------------------------------
G --2-2-2-2-2-2---2-2-2-2----------
D --2-2-2-2-2-2---2-2-2-2----------
A --0-0-0-0-0-0---0-0-0-0-0-----0--
E --------------------------2-2----


Chorus:

E --10--10---------------    --------------------
B --10--10--7-7-7-7-7----    --------------------
G ---8---8--------------- 4x -----44-4-----0-2-0-
D ---7---7--4-4-4-4-4----    -----66---6-2-------
A ---9---9---------------    --66----------------
E ---7---7------------7--    --44----------------

E ----------------------------------------------------------------
B --4-4-4-4--0-0-0-0--4-4-4-4--2-2-2-2--6-6-6-6--7-7-7-7--9-9-9-9-
G --4-4-4-4--1-1-1-1--4-4-4-4--4-4-4-4--6-6-6-6--7-7-7-7--9-9-9-9-
D --4-4-4-4--2-2-2-2--4-4-4-4--4-4-4-4--6-6-6-6--7-7-7-7--9-9-9-9-
A --2-2-2-2--2-2-2-2--2-2-2-2--4-4-4-4--4-4-4-4--5-5-5-5--7-7-7-7-
E -----------0-0-0-0----------------------------------------------


Middle:

E --------------------     ------------------------------------
B --------------------     ------------------------------------
G -----------4-4-4-4--     --2-2-2-2--5-5-5-5--4444-4444-4444--
D --2-2-2-2--4-4-4-4-- 2x  --2-2-2-2--5-5-5-5--4444-4444-4444--
A --2-2-2-2--2-2-2-2--     --0-0-0-0--3-3-3-3--2222-2222-2222--
E --0-0-0-0-----------     ------------------------------------

E --10--10--    -------------------------------  -------------
B --10--10--    -------------------------------  -------------
G ---8---8-- 2x --2-2-2-2-2-2--2-2-2-2---------  -4----------- 2x
D ---7---7--    --2-2-2-2-2-2--2-2-2-2---------  -2-0-2---2---
A ---9---9--    --0-0-0-0-0-0--0-0-0-0-0-------  -------0---0-
E ---7---7--    -------------------------3-2-0-  -------------

E -----------------------------------
B ------------------2----2----2------
G --2-2-2-2-2-2--4^---4^---4^---4----
D --2-2-2-2-2-2-------------------4--
A --0-0-0-0-0-0----------------------
E -----------------------------------


Ending:

E -------------------------
B -------------------------
G --------------------6/8--
D --4-4-4-4--5-5-5-5--7/9--
A --4-4-4-4--5-5-5-5--7/9--
E --2-2-2-2--3-3-3-3--5/7--