Blur-Tender 

Intro
e/-----------------------0---------------------0--------
B/---0-0h2-0-------0-0h2---0h2----2-2-2h3--------3-0-2--
G/-2--------2-2--2-------------2---------0h1------------
D/-------------------------------------------2----------
A/------------------------------------------------------
E/------------------------------------------------------

e/---------------------0--------------------------------
B/---0--0--------0-0h2---0h2---2-2-2h3--------3-3-3-2---
G/-2--2-----2--2-------------2----------0h1-----------2-
D/--------2---------------------------------2-----------
A/------------------------------------------------------
E/------------------------------------------------------

Then the acoustic guitar enters with the chords A and E7.

This is what Graham plays during the verses:

e/-----------------------------
B/-----------------------------
G/-2b4*--2-0-------------------
D/----------------0h2p0--------
A/------------0h2-------2-0----
E/-----------------------------

*=bend the string down two times and then just "pull" it back and 
you'll get the right sound of the first part.

This is what Graham plays in the chorus:
  A             D            C
e/-------------------------------------------
B/-------------------------------------------
G/-6-6-6-6-6-6--s11-----11---11--s9----9---9-
D/-7-7-7-7-7-7--s12--12---12---s10--10--10---
A/-------------------------------------------
E/-------------------------------------------

A
Tender is the night
G            A
Lying by our side
A
Tender is the touch
   G                A  
Of someone that you love too much
A
Tender is the day
    G         A
The demons go away
A               
Lord I need to find
G               A
Someone who can heal my mind

Chorus: 

A                            D   C        
Come on, come on, come on    get through it   
A                            C#m        D 
Come on, come on, come on    Love's the greatest thing 
A                            D   C        
Come on, come on, come on    get through it   
A                            C#m        D 
Come on, come on, come on    Love's the greatest thing 

C#m     D
That we have
    C#m              D
I'm waiting for that feeling
C#m              D
Waiting for that feeling
    A                G          A 
I'm waiting for that feeling to come

A                         E7     A
Oh my baby, oh my baby, oh I, oh my

Verse 2:
A
Tender is the ghost
    G                A
The ghost I love the most
A           
Hiding from the sun
G               A
Waiting for the night to come
A
Tender is my heart you get
    G              A
For screwing up my life
A               
Lord I need to find
G               A
Someone who can heal my mind

Chorus: 

A                            D   C        
Come on, come on, come on    get through it   
A                            C#m        D 
Come on, come on, come on    Love's the greatest thing 
A                            D   C        
Come on, come on, come on    get through it   
A                            C#m        D 
Come on, come on, come on    Love's the greatest thing 

C#m     D
That we have
    C#m              D
I'm waiting for that feeling
C#m              D
Waiting for that feeling
    A                G          A 
I'm waiting for that feeling to come


A                         E7     A
Oh my baby, oh my baby, oh I, oh my
                       
A                         E7     A
Oh my baby, oh my baby, oh I, oh my
 

Guitar solo:
e/----------------------------5-0-3-0--2-3-2-0-----------------------
B/---------------------------------------------3-2-0-----------------
G/-2b4*--2-0-----------------------------------------0---------------
D/----------------0h2p0------------------------------------0h2p0-----
A/------------0h2-------2-0-----------------------------Oh2-----2-0--
E/-------------------------------------------------------------------

Chorus: 

A                            D   C        
Come on, come on, come on    get through it   
A                            C#m        D 
Come on, come on, come on    Love's the greatest thing 
A                            D   C        
Come on, come on, come on    get through it   
A                            C#m        D 
Come on, come on, come on    Love's the greatest thing 

C#m     D
That we have
    C#m              D
I'm waiting for that feeling
C#m              D
Waiting for that feeling
    A                G          A 
I'm waiting for that feeling to come

A                         E7     A
Oh my baby, oh my baby, oh I, oh my
A                         E7     A
Oh my baby, oh my baby, oh I, oh my
A                         E7     A
Oh my baby, oh my baby, oh I, oh my
A                         E7     A
Oh my baby, oh my baby, oh I, oh my

Outro:

   A
e/---------------------------------------------------
B/---------------------------------------------------
G/-6-6-6s5-6-6-6-5-6-6-6-7-6-6--6s5-6-6-6-5-6-6-6-7--
D/-7-7-6s6-7-7-7-6-7-7-7-7-7-7--7s6-7-7-7-6-7-7-7-7--
A/---------------------------------------------------
E/---------------------------------------------------
                                                       Play this
   E7          A                                       a bunch of 
                                                       times
e/---------------------------------------------------
B/---------------------------------------------------
G/-1-1-1-1-1-1--6h7-7-6-6----------------------------
D/-2-2-2-2-2-2--7---7-7-7----------------------------
A/---------------------------------------------------
E/---------------------------------------------------