Blur - "The Man Who Left Himself" (From the single "Stereotypes")


Verse:

C	F	D#	F

C	F	D#	G


     F	     B	      Ab    4
"The man who left him-self..."      4
                                    5
                                    6
                                    6
                                    4

(Electric):

D --666--999--
A --666--999--
E --444--777--

E ---------5------3--
B ---------5-----4---
G -5---2/-------3----
D -5-----------------
A -3-----------------
E -------------------