"There's No Other Way" 
Provided by Francis Booth <sinister@netcomuk.co.uk>


E ---------------------------5-5---|
B -(5)-/12-14-12-12\-3-----5-5-5---|
G -(5)-/12-14-12-12\-3-000-5-7-6---|
D ---------------------------7-7---|
A ---------------------------------|
E ---------------------------------|
 
Verse:

   E       D               B    D
E ----0--|--------------|---2--|-2-----------|
B ----0--|-3-3-2-h3-p2--|---4--|-3--2-h3-p2--|
G ----1--|-2-2----------|---4--|-2-----------|
D -2--2--|-0-0----------|---4--|-0-----------|
A -2-----|--------------|---2--|-------------|
E -0-----|--------------|------|-------------|

Chorus:

E (bar chord: [fr.7])
D (bar chord: [fr.5])
G (bar chord: [fr.3])
A (bar chord: [fr.5])
G (frets: 3,2,0,0,0,3)
A (frets: x,0,2,2,2,0)
E (frets: 0,2,2,1,0,0)

E ------------------------------|
B -3-p0-h3--------------2-h3-p2-|
G ---------4-0-4-0-h2-2---------|
D ------------------------------|
A ------------------------------|
E ------------------------------|

Ending:

E -7-7-7-7--7-7-7-7--5-5--5\--2-2--7-7--|     -7--
B -9-9-9-9--9-9-9-9--7-7--7\--4-4--7-7--|     -9--
G -9-9-9-9--9-9-9-9--7-7--7\--4-4--7-7--|     -9--
D -9-9-9-9--9-9-9-9--7-7--7\--4-4--7-7--| 4x  -9--
A -7-7-7-7--7-7-7-7--5-5--5\--2-2--5-5--|     -7--
E --------------------------------------|     ----