THIS IS A LOW

Intro:
                                                            
   Em        F#		     G		        G       A
E -------0----------2-------------------0-------------------------
B -------0--------2---2----------3--3-----3-----3/5-----5----5----
G -----0--------3-------3------4------------4---4/6-----6----6----
D ---2------4-------------4--5------------------5/7---7---7---7---
A -2--------------------------------------------------------------
E -0--------------------------------------------------------------
                                                            
E---0--0--------------0--0--0--0--0--------------0--0--0----
B---0--0--------------0--0--0--0--0--------------0--0--0----
G---1--1--------------1--1--1--1--1--------------1--1--1----
D---2--2--0--2--0-----2--2--2--2--2--0--2--0-----2--2--2----
A---2--2-----------2--2--2--2--2--2-----------2--2--2--2----
E---0--0--------------0--0--0--0--0--------------0--0--0----


Verse (2x):
                          
E---0--0--------2--2--2--2-----2--2-------------------------
B---0--0--------3--3--3--3-----3--3-----2-----2--2--3--2----
G---1--1--2--1--4--4--4--4-----4--4-----2-----2--2--2--2----
D---2--2--2--2--4--4--4--4-----4--4-----2-----2--2--2--2----
A---2--2--2--2--2--2--2--2-----2--2-----0-----0--0--0--0----
E---0--0--0--0----------------------------------------------
                                                            
E---4-----4--4--4-----4--4-----0-----0-----0-----2--2--2--
B---5-----5--5--5-----5--5-----1-----1--3--1-----3--3--3--
G---6-----6--6--6-----6--6-----0-----0--0--0-----4--4--4--
D---6-----6--6--6-----6--6-----2-----2--2--2-----4--4--4--
A---4-----4--4--4-----4--4-----3-----3--3--3-----2--2--2--
E---------------------------------------------------------
                                                        
E---2-----------0--0--------------0--0--0--0--0--
B------5--3-----0--0--------------0--0--0--0--0--
G------------4--1--1--------------1--1--1--1--1--
D---------------2--2--0--2--0-----2--2--2--2--2--
A---------------2--2-----------2--2--2--2--2--2--
E---------------0--0--------------0--0--0--0--0--
                                                            
E---------------0--0--0--
B---------------0--0--0--
G---------------1--1--1--
D---0--2--0-----2--2--2--
A------------2--2--2--2--
E---------------0--0--0--


E     Bm         A              C#m	
And into the sea goes pretty England and me

C	 	  Bm	     E	
Around the Bay of Biscay and back for tea

E		       Bm
Hitting traffic on the dogger bank

A			C#m
Up the Thames to find a taxi rank

C		    Bm	     E
Sail on by with the tide and fall asleep


(and the radio says...)

                                                            
Chorus:
                                                            
E---0-----0--0--0-----0--0--0--2-----2--2--2-----2--2--2----
B---0-----0--0--0-----0--0--0--3-----3--3--3-----3--3--3----
G---1-----1--1--1-----1--1--1--2-----2--2--2-----2--2--2----
D---2-----2--2--2-----2--2--2--0-----0--0--0-----0--0--0----
A---2-----2--2--2-----2--2--2--0-----0--0--0-----0--0--0----
E---0-----0--0--0-----0--0--0-------------------------------
                                                            
E---0-----0--0--0-----0--0--0--0-----2-----2--2--2--
B---0-----0--0--0-----0--0--0--1-----3-----3--3--3--
G---1-----1--1--1-----1--1--1--2-----4-----4--4--4--
D---2-----2--2--2-----2--2--2--2-----4-----4--4--4--
A---2-----2--2--2-----2--2--2--0-----2-----2--2--2--
E---0-----0--0--0-----0--0--0-----------------------
                                                            
E---0---0--0--0-----0--0--0--2-----2--2--2-----2--2--2--
B---0---0--0--0-----0--0--0--3-----3--3--3-----3--3--3--
G---1---1--1--1-----1--1--1--2-----2--2--2-----2--2--2--
D---2---2--2--2-----2--2--2--0-----0--0--0-----0--0--0--
A---2---2--2--2-----2--2--2--0-----0--0--0-----0--0--0--
E---0---0--0--0-----0--0--0-----------------------------
                                                            
E---0---0--0--0-----0--0--0--0-----2-----2--2--2--
B---0---0--0--0-----0--0--0--1-----3-----3--3--3--
G---1---1--1--1-----1--1--1--2-----4-----4--4--4--
D---2---2--2--2-----2--2--2--2-----4-----4--4--4--
A---2---2--2--2-----2--2--2--0-----2-----2--2--2--
E---0---0--0--0-----0--0--0-----------------------
                                                            
E---0-----0-----2-----2--2-----5--5--5--5--0--0--------------
B---1--3--1-----3-----3--3-----3--3--3--3--0--0--------------
G---0--0--0-----2-----2--2-----2--2--2--2--1--1--------------
D---3--2--2-----4-----4--4-----4--4--4--4--2--2--0--2--0-----
A---3--3--3-----2-----2--2-----2--2--2--2--2--2-----------2--
E------------------------------------------0--0--------------
                                                            
E---0--0--0--0--0--------------0--0--0--
B---0--0--0--0--0--------------0--0--0--
G---1--1--1--1--1--------------1--1--1--
D---2--2--2--2--2--0--2--0-----2--2--2--
A---2--2--2--2--2-----------2--2--2--2--
E---0--0--0--0--0--------------0--0--0--
                                                          

E	  D	E	     Am   Bm
This is a low...but it won't hurt you

E	     D	E	       Am	  Bm
When you're alone...it will be there when you

C		Bm     E
Finding ways to stay solo


E		       Bm
On the tyne, forth and cromarty

A		     C#m
There's a low in the high 40's

      C			 Bm
(and) Saturday's locked away on the pier

    E
Not fast enough dear

E      Bm	   A		   C#m
On the malin head, blackpool looks blue and red

        C		   Bm
And the queen, she's gone `round the bend

	 E
Jumped off Land's End

Solo
    E         Bm                A                    C#m C
E---------------------------------------------------------------
B---9--10--9--7-----------7--9--9^---------------12--14---------
G---9--11--9--7--9--7--9------------9--11--9--11/13------7------
D---------------------------------------------------------------
A---------------------------------------------------------------
E---------------------------------------------------------------
               Bm      E            Bm                A                                                                                                                      
E--------7------------------------------------------------------
B-------------------------9--10--9--7-----------7--9--9^--------
G---7h9-----9--9p7--7--9--9--11--9--7--9--7--9------------9-----
D---------------------------------------------------------------
A---------------------------------------------------------------
E---------------------------------------------------------------
               C#m           C         Bm                                                                                                              
E--------------------11--12-------------------------------------
B--------------9--9--------------12-----------------------------
G---11--9--11----------------9^------9--9/7--7------------------
D---------------------------------------------------------------
A---------------------------------------------------------------
E---------------------------------------------------------------

   Em       F#m		     G6		        A
E -------0----------2-------------------0-------------------------
B -------0--------2---2----------3--3-----3-----3/5-----5----5----
G -----0--------3-------3------4------------4---4/6-----6----6----
D ---2------4-------------4--5------------------5/7---7---7---7---
A -2--------------------------------------------------------------
E -0--------------------------------------------------------------