ALWAYS-BON JOVI	 
		         
Intro
E        A     
C#m  B   A        

C#m
    This romeo is bleeding
B
    but you can't see his blood
A 
    it's nothing but some feelings
              G#m7              B 
    that this old dog kicked up
C#m
    it's been raining since you left me
 B   
    now I'm drowning in the flood
A
    you see I've always been a fighter
            G#m7           A   B  
    but without you I give up

C#m
    now I can't sing a love song
              B     
    like the way it's meant to be
             A                  
    well, I guess I'm not that good anymore
        B                 A   B
    but baby, that's just me

           E      B   
     yeah, I will love you
        F#m  C#m B
     baby -  Al--ways
         E                B           A  
     and I'll be there forever and a day -
     C#m B
     Al--ways
     
     E
     I'll be there till the stars don't shine
              B
     till the heavens burst and
          
     the words don't rhyme
                   A                     
      and I know when I die, you'll be on my mind
                B         A  B  C#m    A         
      and I'll love you - Al---ways

 C#m   
      now your pictures that you left behind
                B 
      are just memories of a different life
                A
      some that made us laugh, some that made us cry
               G#m7
      one that made you have to say goodbye
 C#m              
      what I'd give to run my fingers through

      your hair
          B
      to touch your lips, to hold you near
                A
      when you say your prayers

      try to understand
           G#m7               A      B
      I've made mistakes, I'm just a man

               C#m
      when he holds you close, when he pulls you near
               B
      when he says the words you've been

      needing to hear
                A
      I'll wish I was him `cause those words are mine
          B                  A       B
      to say to you till the end of time

           E      B   
     yeah, I will love you
        F#m  C#m B
     baby -  Al--ways
         E                B           A  
     and I'll be there forever and a day -
     C#m B
     Al--ways
 
    D                      G 
      if you told me to cry for you
    A     D
      I could
                           G
      if you told me to die for you
          Bm
      I would
             A
      take a look at my face
   G             F#m           A
      there's no price I won't pay

      to say these words to you

   Guitar solo 
e|---------|----------------------|----------------------|--------------------------|
B|---------|----------------------|----------------------|--------------------------|
G|---------|----------------------|----------------------|-v------------------------|
D|----9h11-|--v---9h11---v--------|-----------------2-4r-|-2------2-4r-2---2-4-4r-2-|
A|-11------|-11---------11---9r-7-|-9----v------2-4------|---4-2-4------4-2---------|
E|---------|----------------------|----7-7---4-----------|--------------------------|

--------------------12-|-12\9-9\7-7/12-12\9-9\7-7-----------|------------------12----|
-----------------12b12-|-12\9-9\7-7/12-12\9-9\7-7-----------|----12b--------14-12-14-|
-----------------------|---------------------------11r-11-9-|-11---------13----------|
-----2-4r-4-2-4~-------|--------------------------0---------|----------9-------------|
-4-4-------------------|------------------------------------|-------11---------------|
-----------------------|------------------------------------|------------------------|

-12-------12-------12-12-12-12----------12-14r14-12-|-14~---16b---14r---|--12-----|
-14-12----14-12----12-14-14-12----12-14-------------|-------------------|-----14--|
-------13-------13-------------13-------------------|-------------------|---------|
----------------------------------------------------|-------------------|---------|
----------------------------------------------------|-------------------|---------|
----------------------------------------------------|-------------------|---------|
    A  
      well, there ain't no luck

      in these loaded dice
           B
      but baby if you give me just one more try
              A
      we can pack up our old dreams

      and our old lives
             B                      A          B
      we'll find a place where the sun still shines

            E       B
      yeah, I will love you
         A   C#m B
      baby - Al--ways
          E                B           A
      and I'll be there forever and a day -
      C#m B
      Alw-ays
  E
     I'll be there till the stars don't shine
               B
     till the heavens burst and
          A
     the words don't rhyme
                   A                     
      and I know when I die, you'll be on my mind
                B         A  B  E         
      and I'll love you - Al---ways

           E  B  
	   
	   C#m  B   A