Bon Jovi - It's My Life

Intro
E|---------------3-|-4-----3------|
B|-------------4---|--------------|
G|-5---5-----5-----|--------------|   x2
D|-5---5-----------|--------------|
A|-3---3-----------|--------------|
E|-----------------|--------------|

Verse
C5
This ain't a song for the broken hearted (repeat intro)
  C5
A silent prayer for faith departed (repeat intro)
C5
I ain't gonna be just a face in the crowd
F5
You're gonna hear my voice when I shout it out loud

Chorus: 
        C5         Ab5 
It's my life; it's now or never
Eb5           Bb5
I ain't gonna live forever,
C5             Ab5           Bb5
I just want to live when I'm alive
w/chorus
It's my life; my heart is like an open highway
Like franky said I did it my way,
I just wanna live when I'm alive

It's my life. (repeat intro)

w/verse
This is for ones who stood their ground
Like Tommy and Gina, never backed down
Tomorrow's getting harder make no mistake
Luck ain't even lucky got to make your own breaks

Chorus:

Solo:
 Bb5                                 C5
-----------------|-----------------|-----------------|-----------------|
-----------------|-----------------|-----------------|-----------------|
-----------------|-----------------|-----------------|-----------------|
-----------------|-----------------|-----------------|-----------------|
-5-6-5-6-5-6-5-6-|-5-6-5-6-5-6-5-6-|-5-6-5-6-5-6-5-6-|-5-6-5-6-5-6-5-6-|
-----------------|-----------------|-----------------|-----------------|

 Bb5        <---hold bend->                 F5
------------------|---------------------|-----------------|-----------------|
------------------|---------------------|-----------------|-----------------|
---------8-10b----|-10--10--10br---10-8-|-10--------------|-----------------|
---8-10-----------|---------------------|----8-10---------|------------1----|
------------------|---------------------|-----------------|----------1---1--|
------------------|---------------------|-----------------|--------3--------|

Bridge:
C5 
You better stand tall when they're calling you out

Don't bend don't break baby don't back down

Chorus x2

http://www.sparkystabs.co.uk