Bryan Adams-Everything I Do I Do It For You Chords

Capo 1

C G F G

C G F G C G F C G

Dm C Dm C Dm C G C

C G F G C G F C G

Dm C Dm C Dm C G C

Bb Eb Bb F C G D G

E-----------------------------------------------------------------------
B-----------------------------------------------------11--11h14--11-----
G---8--10--------8/10--10--8\6--3/6--10h13--13--------------------------
D----------8--8---------------------------------8/11--------------------
A-----------------------------------------------------------------------
E-----------------------------------------------------------------------
                                                                                                                                               
E-------------------------------
B---9--11-----------------------
G----------8/10--8^--8^--8^--6--
D-------------------------------
A-------------------------------
E-------------------------------

Dm G Dm G C G F Fm

C G F F6 C

http://www.sparkystabs.co.uk