Bryan Adams feat Mel C - When You're Gone

Intro
Dm F C G

Verse
          Dm                  G
I've been wandering round the house all night,
C
Wondering what the hell to do.
          Dm                        G                     C
Yeah, I'm trying to concentrate but all I can think of is you.
          Dm                      G
Well, the phone don't ring coz my friends ain't home,
    C
I'm tired of being all alone.
        Dm            Bb             G
Got the TV on coz the radio's playin songs that remind me of you.

Chorus
                 Dm     F
Baby when you're gone,
                 C       G
I realise I'm in love,
               Dm      F
Days go on and on,
                         C  G
And the nights just seem so long,
                           Dm    F
Even food don't taste that good,
                          C         G
Drink ain't doing what it should,
                    Dm        Bb
Things just feel so wrong,
                 G
Baby when you're gone.

Verse
          Dm             G
I've been driving up and down these streets,
C
Tryin to find somewhere to go.
         Dm                     G                         C                  
Yeah I'm looking for a familiar face but there's no-one I know.
Dm               G
This is torture, this is pain,
   C
It feels like I'm gonna go insane.
  Dm                 Bb
I hope you're coming back real soon,
            G
Coz I don't know what to do.

Chorus
                 Dm     F
Baby when you're gone, (when you're gone)
                 C       G
I realise I'm in love,
               Dm      F
Days go on and on, (on and on)
                         C  G
And the nights just seem so long,
                           Dm    F
Even food don't taste that good,
                          C         G
Drink ain't doing what it should,

                    Dm        Bb
Things just feel so wrong,
                 G
Baby when you're gone.

Solo over Dm G C x3 Dm Bb G

                              *=pick 4 times while bent
E-5-------------------5-------------------------------------------------------------- 
B---5--------------------8----------------------------------------------------------- 
G------7b--7-7p5---7b-------7b*----7----5--5-----5--7p5--7--7--7---5---7b---7--5----- 
D---------------------------------------------7------------------------------------7- 
A------------------------------------------------------------------------------------ 
E------------------------------------------------------------------------------------

E-------------------------8---8--8--8--8-8-8--8--8--8-8--------------------------------
B---------------------------8-10-10-10-8-8-10-10-8--8--10-8---------8--8--8--8-10-8-10- 
G----------5----------/9------------------------------------7-5-7b---------------------
D-7p5----5--5h7---5\3------------------------------------------------------------------
A----6h7------------------------------------------------------------------------------- 
E--------------------------------------------------------------------------------------

E-8-10b-8-8-------10----10-10-10-------------------8--8--8---8---8-------------------
B-----------10/13----13----------11-11-11-11-11-10-10-8-8-10-10--8-------------------
G-------------------------------------------------------------------7--5--7-7b-5-7---
D------------------------------------------------------------------------------------
A------------------------------------------------------------------------------------
E------------------------------------------------------------------------------------ 

Chorus
                 Dm                 F
Baby when you're gone, (when you're gone)
                 C       G
I realise I'm in love, (I'm in love)
               Dm      F
Days go on and on,
                         C  G
And the nights just seem so long,
                           Dm    F
Even food don't taste that good,
                          C         G
Drink ain't doing what it should,
                    Dm         Bb
Things just feel so wrong, (so wrong)
                 G
Baby when you're gone.
                 Dm     Bb
Baby when you're gone.
                 F
Baby when you're gone.