Bryan Adams - The Only Thing That Looks Good On Me Is You

Intro
             <---fig 1----->              <--verse riff----------------------->
E|--------------------|-------------------|-----------------|-----------------|
B|--------------------|-6-----------------|-----------------|-----------------|
G|---x-x-x-x-5-7--7---|----7--------------|-----------------|-----------------|
D|---x-x-x-x----------|----------7--5--7--|-7-7-7-5-5-7-7-3-|-5-5-5-----7-5-7-|
A|--------------------|----------5--5--5--|-5-5-5-5-5-5-5-3-|-3-3-2-5---5-5-5-|
E|--------------------|-------------------|-----------------|-------3---------|

Intro Lead
----10---10--------|-8--10----10---------|
----------------10-|-----------8---------|
-------------------|---------------------|
-------------------|---------------------|
-------------------|---------------------|
-------------------|---------------------|

Verse
Well I don't look good in no Armani Suits
No Gucci shoes or designer boots
I've tried the latest lines from A to Z
But there's just one thing that looks good on me

The only thing I want
The only thing I need
The only thing I choose
    F5                               fig 1
The only thing that looks good on me... is you

Play Intro

Verse
I'm not satisfied with Versace style
Put those patent leather pants in the circular file
Sometimes I think I might be lookin' good
But there's only one thing that fits me like it should
   
Chorus
 
Solo
e|-10-10-10-10-10-10-10-10-|-10-10-10-10-10-10-10-10-|   x2
B|-10-10-10-10-10-10-10-10-|-8--8--8--8--8--8--8--8--|

Middle
        F5
Ya it's you
                 C5
It could only be you
                      Bb5
Nobody else will ever do
             F5       A5
Yeah baby it's you that I stick to

w/intro
Ya we stick like glue

Chorus to fade
The only thing I want
The only thing I need
The only thing I choose
F5                        G5
The only thing that looks good on me... is you

http://www.sparkystabs.co.uk