song: SWALLOWED
band: B*U*S*H
tabbed by: CHRIS ALLEN   (SHIRESBOYS@aol.com)
album: RAZORBLADE SUITCASES


this is the band's first single off of their new album RAZORBLADE
SUITCASES.  It is a really good song and i enjoy listening to it as 
well as playing it.  Here the real way it goes.

intro

E--------------------------------------------------------------------
B--------------------------------------------------------------------
G----------------- 6 -------------------- 10 ------------------------
D--------- 6 - 6 ---------- 10 ----- 10 -----------------------------
A--------- 4 ------------------- 8 ----------------------------------
E----- 4 ------------ 4/8 -------------------------------------------

Chorus

E--------------------------------------------------------------------
B--------------------------------------------------------------------
G----- 5 ---- 9 ---- 10 --- 7 ---------------------------------------
D----- 6 ---- 10 --- 11 --- 8 ---------------------------------------
A----- 6 ---- 10 --- 11 --- 8 ---------------------------------------
E----- 4 ---- 8 ---- 9 ---- 6 ---------------------------------------

Verse 2

E--------------------------------------------------------------------
B--------------------------------------------------------------------
G------------- 6 - 6 - 6 ------------------ 10 - 10 - 10 ------------
D----- 6 - 6 - 6 - 6 - 6 - 6/10 - 10 - 10 - 10 - 10 - 10 ------------
A----- 6 - 6 - 4 - 4 - 4 - 6/10 - 10 - 10 - 8 -- 8 -- 8 -------------
E----- 4 - 4 ------------- 4/8 -- 8 -- 8 ----------------------------

Solo

b:--)-----
g:-9------  Strike the note 24 times, and gradually bend it

e:-----------------------------------------------
b:-----------------------------------------------
g:---------5/8/9----9----9----9\5----------5/8/9-
d:-6-6-6-6-------10---10---10------6-6-6-6-------

e:----------------------------------------
b:----------------------------------------
g:----9----9----9/13-13-13-13-12-12-12-12-
d:-10---10---10---------------------------

b:-------------17-17-17-17--------------
g:-17-17-17-17-------------13-13-13-13--

b:------------------------17-----------------
g:-12-12-12-12-17-17-17-17--17\1-------------



				
Chorus End 1 (this is also played during solo)

E--------------------------------------------------------------------
B--------------------------------------------------------------------
G--- 5 ------ 9 -----------------------------------------------------
D--- 6 ------ 10 ----------------------------------------------------
A--- 6 ------ 10 ----------------------------------------------------
E--- 4 ------ 8 -----------------------------------------------------

this part below comes in after the second chorus right before the solo

E--- x - x - x - x - x - x - x - x - x - x - x - x - x - x - x - x --
B--- 5 - 5 - 5 - 5 - 5 - 5 - 5 - 5 - 5^1/2 - 5^1/2 - 5^1/2 - 5^1/2 --
G--------------------------------------------------------------------
D--------------------------------------------------------------------
A--------------------------------------------------------------------
E--------------------------------------------------------------------

Ending

this is just random picking on these chords

E--------------------------------------------------------------------
B--------------------------------------------------------------------
G-- 10 ------ 7 -----------------------------------------------------
D-- 11 ------ 8 -----------------------------------------------------
A-- 11 ------ 8 -----------------------------------------------------
E-- 9 ------- 6 ------ 4 - 4 - 4 - 4 - 4 - 4 - 4 - 4 - 4 - 4 - 4 - 4-
here's the order it goes

intro 4X
chorus 2x
chorus end 2x
verse 2 2x
chorus 3X
Chorus End 3X
picking part
solo
intro 4X
Chorus 2X
Chorus End 10X
Ending  (fade out with the G# note)

here's lyrics 

Warm sun, feed me up when
I'm leary, load it up
Loathing, for a change and 
I slip some, blow it away

*chorus*
Swallowed, followed, happy bout everything but my love
Swallowed, sorrowed, I'm with everyone and yet not
Im with everyone and yet not
Im with everyone and yet

Just wanna be myself

Hey you said you would, love to try some
hey you said you would love to die some
In the middle of a world on a fish hook,
you`re the wave, you`re the wave, you`re the wave

*chorus*
Swallowed, borrowed, happy bout everything and yet not
Swallowed, hollowed, sharper bout everyone but yourself
Swallowed, I know, I`m with everyone and yet not
Im with everyone and yet not
Im with everyone and yet not
Im with everyone and yet

Piss on, self-esteem 
enough for words, busted me
sick head, blackened lungs and I`m a 
Simple, selfish son

*chorus*
Swallowed, borrowed, happy bout everything but my love
Swallowed, I know, Im with everyone and yet not
Im with everyone and yet not
Im with everyone and yet not

Gotta get away from here
Gotta get away from here
Gotta get away from here
Gotta get away from here

Miss the one that i love alot
Miss the one that i love alot
Miss the one that i love alot
I love