The Cardigans-Lovefool

CHORDS AND RIFFS
-------------------------------------------------------------------------------------
VERSE chords
    Am7   Dm7   G13    Cmaj7
E---12----12----12-----12-----
B---13----13----12-----12-----
G---12----14----10(12)-12-----
D---14----12----12-----10-----
A---12----------10------------
E-----------------------------

BRIDGE chords
    Cmaj7  C#dim7  Dm7   D#dim7   E
E---------------------------------------
B-----0------5------6-------7-----9-----
G-----0------3------5-------5-----9-----
D-----2------5------7-------7-----9-----
A-----3------4------5-------6-----7-----
E---------------------------------------

CHORUS chords
   Amaj7   Dmaj7   Bm7   E13   F#m7    
E----9------14------9-----9-----9-------
B----9------14-----10-----9----10-------
G----9------14-----11-----7(9)--9-------
D----7------12------9-----9----11-------
A-------------------------7-----9-------
E---------------------------------------

TAG (and CODA) chords
      A    Dm    E#5
E-----5----5--------------
B-----5----6-----5--------
G-----6----7-----5--------
D-----7----7-----6--------
A-----7----5-----7--------
E-----5-------------------

--------------------------------------------------------------------------------------
Intro:
	sustained Am7 chord

VERSE 1:
	Am7                Dm7
	Dear, I fear we're facing a problem             
	G13             Cmaj7
	you love me no longer, I know         
        Am7            Dm7                 
	and maybe there is nothing that I can do
G13                Cmaj7
	to make you do                         
	
	Am7            Dm7
	Mama tells me I shouldn't bother           
	G13                Cmaj7
	that I ought to stick to another man           
Am7			   Dm7
	a man that surely deserves me          
G13                  
	but I think you do!                       


BRIDGE (sorta):
Cmaj7  C#dim7  Dm7      D#dim7     E
	           So I cry, and I pray and I beg                      


CHORUS:
	Amaj7      Dmaj7
	Love me love me                         
	Bm7           E13
	say that you love me
	Amaj7       Dma7
	fool me fool me            
	Bm7          E13	
	go on and fool me
	Amaj7      Dmaj7	                              
	love me love me                        
	   Bm7         E13	
	pretend that you love me                       
	Amaj7       Dma7
	leave me leave me 
	   Bm7           E13	
	just say that you need me                      
F#m      Bm7
	So I cried
E13     Amaj7                                	
	and I begged for you to               
	Amaj7      Dmaj7	                              
	love me love me                        
	Bm7          E13	
	say that you love me                       
	Amaj7       Dmaj7
	leave me leave me 
	   Bm7           E13	
	just say that you need me                      

TAG:        
	A       Dm         E#5          Am7
	I can't care 'bout anything but you...       

VERSE 2:
	Lately I have desperately pondered,             
	spent my nights awake and I wonder            
	what I could have done in another way  
	to make you stay                               
	Reason will not lead to solution               
	I will end up lost in confusion           
	I don't care if you really care             
	as long as you don't go             
	   
BRIDGE:                                               
	So I cry, I pray and I beg...
(to CHORUS)

CODA: (from previous CHORUS)
	E#5          Amaj7    Dmaj7 	                
	Anything but you 
	Bm7  E13    Amaj7   Dma7   Bm7  E13
	(anything but you)                                
	Amaj7      Dmaj7
	Love me love me                       
	Bm7                 E13
	Say that you love me                   
	Amaj7      Amaj7
	Fool me fool me                        
Bm7           E13
	Go on and fool me                         
	Amaj7      Ama7
	Love me love me                        
Bm7                 E13
	I know that you need me                 
	A       Dm         E#5
	I can't care 'bout anything             
	    Am
	but you...