I am the Mob

Intro:
Feedback and pick scrapes
"Alright if you think you're some bad girl
you just wait till someone else gets hold of
you and beats the living daylights out of you."



        D       D/C#       D       D/C#
I put horse's heads in people's beds,
    G A        D
Cos I am the mob,
      D      D/C#        D         D/C#
When duty calls gonna bust some balls
    G A       D
Cos I am the mob,


Em                      
Try tell me it's not one for the money,

Two for the money, three for the money
                             Bm
Am I your Easter bunny come on,
Em
I try my level best , my best to please
                                                        Bm
but I'm gonna put a bullet between your knees baby come on
         A
Oh just hello

        D         D/C#             D         D/C#
Stop blowing 'the jon' put his 'kicks back' on
    G A       D
cos I am the mob
      D          D/C#          D         D/C#  
stop mucking around, with a brand new sound
   G  A      D
cos I am the mob

Em
try tell me it's not one for the money, 
 
two for the money, three for the money
                            Bm
Am i your easter bunny come on
       
oh baby come on

Em
i try my level best, my best to please but

i'm gonna put a bullet between your knees
     Bm                A
come on, just please hello

       D         A              G                 Em       
And I look and I see that he sleeps with the 'fishes'
       D          A            G                   Em
And I look and I see that he sleeps with the 'fishes'
       D         A             G                 Em
And I look and I see that he sleeps with the 'fishes'
G     Em Eb   D
Mrs


SOLO!(Flanger with distortion)
  Em
E---------------------------------------------
B---------------------------------------------
G-12-12-12-12-12-12-12-12-11-11-11-11-9-9-9-9-
D---------------------------------------------
A---------------------------------------------
E---------------------------------------------

E---------------------------------------------
B---------------------------------------------
G-12-12-12-12-12-12-12-12-11-11-11-11-9-9-9-9-
D---------------------------------------------
A---------------------------------------------
E---------------------------------------------
  Bm
E---------------------------------
B---------------------------------
G-7-7-7-7-7-7-7-7-6-6-6-6-4-4-4-4-
D---------------------------------
A---------------------------------
E---------------------------------

E---------------------------------
B---------------------------------
G-7-7-7-7-7-7-7-7-6-6-6-6-4-4-4-4-
D---------------------------------
A---------------------------------
E---------------------------------
  Em
E---------------------------------------------
B---------------------------------------------
G-12-12-12-12-12-12-12-12-11-11-11-11-9-9-9-9-
D---------------------------------------------
A---------------------------------------------
E---------------------------------------------

E---------------------------------------------
B---------------------------------------------
G-12-12-12-12-12-12-12-12-11-11-11-11-9-9-9-9-
D---------------------------------------------
A---------------------------------------------
E---------------------------------------------
  Bm                              A
E-----------------------------------
B-----------------------------------
G-7-7-7-7-7-7-7-7-6-6-6-6-4-4-4-4-2-
D-----------------------------------
A-----------------------------------
E-----------------------------------

             A7
Oh tell him yes tell him
       D         A              G                 Em       
And I look and I see that he sleeps with the 'fishes'
       D          A            G                   Em
And I look and I see that he sleeps with the 'fishes'
       D         A             G                 Em
And I look and I see that he sleeps with the 'fishes'
G     Em Eb
Mrs
       D         A              G                 Em       
And I look and I see that he sleeps with the 'fishes'
       D          A            G                   Em
And I look and I see that he sleeps with the 'fishes'
       D         A             G                 Em
And I look and I see that he sleeps with the 'fishes'
G A       D
I am the mob

Feedback...


Lead guitar during chorus(fishes):
E--10-9-7--------------    
B---------9-7-9-7------
G-7---------------11-9-
D----------------------
A----------------------
E----------------------