Chuck Berry - Johnny B Goode

Intro
e|-------------------------|--6--6--6--6--6--6--6--6--|--6-----------------------|
B|-------------------6--8--|--6--6--6--6--6--6--6--6--|-----9--8--6--------------|
G|-------------6S-7--------|--------------------------|--------------6--7--------|
D|-------------------------|--------------------------|--------------------8--8--|
A|-------------------------|--------------------------|--------------------------|
E|-------------------------|--------------------------|--------------------------|

--------------------------|--------------------------|-----------------------------|
--------------------------|-----6--8--6--------------|---------6---------6---------|
--------------------------|--7--7--7--7--------------|--9b--------9b--------9b-----|
--8--8--8--8--8--8--8--8--|--------------10-8--------|-----------------------------|
--8--8--8--8--8--8--8--8--|--------------------10----|-----------------------------|
--------------------------|--------------------------|-----------------------------|

--6------------------6----|-----------------------------|---------------------6----|
--6---------6--------6----|---------6---------6---------|--6---------6--------6----|
-----9b--------9b---------|--9b--------9b--------9b-----|-----9b--------9b---------|
--------------------------|-----------------------------|--------------------------|
--------------------------|-----------------------------|--------------------------|
--------------------------|-----------------------------|--------------------------|

---------------------8------|---------------------6------|----------------------------|
--------11--9--8--------11--|--9--8-------------6----9S--|--8--6------6------6--8--6--|
--9b--------------10--------|--------10-8--7--7----------|--------9b-----9b-----8--7--|
----------------------------|----------------------------|----------------------------|
----------------------------|----------------------------|----------------------------|
----------------------------|----------------------------|----------------------------|

---------------------|
---------------------|
---------------------|
--8------------------|
---------------------|
---------------------|

     Bb
Deep down in Louisiana, close to New Orleans, 
Bb
Way back up in the woods among the evergreens,
      Eb
There stood a log cabin made of earth and wood
      Bb
Where lived a country boy named Johnny B. Goode
    F
Who never ever learned to read or write so well,
             Bb
But he could play the guitar just like a ringin' a bell.


CHORUS:

--------------------------|
-----9--9--9--9--11\------|
-----10-10-10-10-10\------|
--------------------------|
--------------------------|
--------------------------|

Bb
Go! Go! Go, Johnny, go! Go!
                Eb
Go, Johnny, go! Go!
                Bb
Go, Johnny, go! Go!
                F
Go, Johnny, go! Go! Johnny B. Goode 

Verse
He used to carry his guitar in a gunny sack,
Go sit beneath the tree by the railroad track.
Old engineers would see him sittin' in the shade,
Strummin' with the rhythm that the drivers made.
When people passed him by they would stop and say,
'oh, my but that little country boy could play'

Chorus

Solo
-----------------------|--6--6--6--6--6-------------|--6--6--6--6--6-------------|
-----------------6--8--|--6--6--6--6--6-------------|--6--6--6--6--6-------------|
--------------7--------|-----------------8--6h-7----|-----------------8--6h-7----|
-----------------------|-------------------------8--|-------------------------8--|
-----------------------|----------------------------|----------------------------|
-----------------------|----------------------------|----------------------------|
 
--6-------------6-------------|--6----6----6----------------|-----------------------8-----|
--6-------------6-------------|--6----6----6----------------|-------------11--9-----------|
-----8--6h-7-------8--6h-7----|---------------8p-7p-6h-7----|-----9s-10-------------------|
-------------8-------------8--|--------------------------8--|-----------------------------|
------------------------------|-----------------------------|-----------------------------|
------------------------------|-----------------------------|-----------------------------|
 
--------6--------------6--6--|--6-----------6--6--6--6--|--6-----------6-----------|
--9--8--6------------6-------|-----8--6-----6-----------|-----8--6-----6--8--6-----|
-----------8--6s-7-7---------|-----------7--7-----------|-----------7--7--------7--|
-----------------------------|--------------------------|--------------------------|
-----------------------------|--------------------------|--------------------------|
-----------------------------|--------------------------|--------------------------|

---------------------------------|--------------------------------|----------------------------|
---11--11--11--11--11------------|--------------------------------|---------------8------------|
---10--10--10--10--10-8--6h-7----|------9b-----9b-----9b-----9br--|------7-----------6s-7------|
------------------------------8--|-----11b----11b----11b----11br--|---------8-------------8----|
---------------------------------|--------------------------------|----------------------------|
---------------------------------|--------------------------------|----------------------------|

---------------------|--6--6--6--6--6-------------|--6--6--6--6--6-------------|
---------------------|--6--6--6--6--6-------------|--6--6--6--6--6-------------|
--7------------------|-----------------8--6h-7----|-----------------8--6h-7----|
--8------------------|-------------------------8--|-------------------------8--|
---------------------|----------------------------|----------------------------|
---------------------|----------------------------|----------------------------|
 
--6-------------6-------------|---------------------------------|------------------------------|
--6-------------6-------------|---------------------------------|--------9-----11--8s-9----11--|
-----8--6h-7-------8--6h-7----|------9b------9b------9br-----7--|--------10--------9s-10-------|
-------------8-------------8--|-----11b-----11b-----11br--------|--8---------------------------|
------------------------------|---------------------------------|------------------------------|
------------------------------|---------------------------------|------------------------------|

----------------------------------|---------------------------------|
--8s-9----11--8s-9----11--8s-9----|--11-----8s-9----11--8s-9----11--|
--9s-10-------9s-10-------9s-10---|---------9s-10-------9s-10-------|
----------------------------------|---------------------------------|
----------------------------------|---------------------------------|
----------------------------------|---------------------------------|
   
----------------------------------|--9s-10----8------------------|
--8s-9----11--8s-9-----11--11--11-|-------11-----11--9S--8--6----|
--9s-10-------9s-10----10--10--10-|------------------9S--7--5----|
----------------------------------|------------------------------|
----------------------------------|------------------------------|
----------------------------------|------------------------------|
      
------------------------------------|---------------------------------|----------------------|
------------------9s--11-11---------|---------11----9s--11-11----------|----------------------|
--9s-1010-9s-1010-9s--10-10-8-------|---------10----9s--10-9--8-------|----------------------|
-------------------------------11b--|-----8----------------------11b--|-----8----------------|
------------------------------------|---------------------------------|----------------------|
------------------------------------|---------------------------------|----------------------|

Verse
His mother told him, 'someday you will be a man,
You will be the leader of a big ol' band.
Many people comin' from miles around
Will hear you play your music when the sun go down.
Maybe someday your name'll be in lights,
Sayin' 'Johnny B. Goode tonight''

CHORUS

http://www.sparkystabs.co.uk