Creedende Clearwater Revival - Bad Moon Rising

Intro:
D  A  G  D measure 1

Measure 1:
e-2-2-2--2-2-2--2-2--2---------------|-----------------------------------|
B-3-3-3--3-3-3--3-3--3---------------|-----------------------------------|
G-2-4-2--2-2-4--2-2--4---------------|-----------------------------------|
D------------------------------------|-----------------------------------|

D       A   G    D measure 1
I see a bad moon a rising
D     A       G      D measure 1
I see trouble on the way
D     A     G          D measure 1 
I see earth quakes and lightnin'
D     A   G     D measure 1
I see bad times today

Chorus
G
Don't go around tonight
           D                D
well, it's bound to take your life
A            G            D measure 1
There's a bad moon on the rise

Verse
D      A         G    D measure 2
I hear hurricanes a blowin'

Measure 2:
B------------------------------------|-----------------------------------|
G--4-----4r2----2--------------------|-----------------------------------|
D----2h4----2h4----------------------|-----------------------------------|
A------------------------------------|-----------------------------------|

D          A      G      D measure 2
I know the end is comin' soon
D      A      G      D measure 2
I fell rivers over flowin'
D             A       G        D measure 1
I hear the voice from rage and ruin

Chorus

Solo
e-------------------2---2-2-2--2-2-2--2-2-2------------------2-2---5-2---|
B-7-7---7-7--5--3---3---3-3-3--3-3-3--3-3-3--7-7--7-7--5--3--3---3-----3-|
G-7-7---7-7--6--4---2---2-4-2--2-2-4--2-2-4--7-7--7-7--6--4--2-----------|
D-7-7---7-7--7--5--------------------|-------7-7--7-7--7--5--0-----------|
A-----------------0------------------|-----------------------------------|
E------------------------------------|-----------------------------------|

e--3-3-3r0---3r0--------------------5--5-5-5--3--3-3-3---2---------------|
B--3-3----3-----3-3-3-3-3-3-3-3-3---5--5-7-5--3--3-5-3---3-measure 1 ----|
G--0-0------------2h4-2-2-4r2-2-4--/6--6-6-6-/4--4-4-4---2---------------|
D-----------------0-0-0-0-0-0-0-0----|-----------------0-----------------|

Verse
D        A        G      D measure 2
Hope you got your things together
D            A          G       D measure 2
Hope you are quite prepared to die
D          A              G     D measure 2
Looks like we're in for nasty weather
D          A       G      D measure 2
One eye is thakin' for an eye

Chorus

http://www.sparkystabs.co.uk