Creedence Cleawater Revival - Proud Mary

Intro C  A   x 3  C  A G F F6 F D

Verse
D
Left a good job in the city, 
Workin for the man every night and day
And I never lost one minute of sleepin',
Worryin' 'bout the way things might have been.
A                            
Big wheel a-keep on turnin' 
      Bm                      riff 1
Proud    Mary keep on burnin',

Riff 1
D------------------------------------|-----------------------------------|
A-----------5--7--7/9/7--5-----------|-----------------------------------|
E----5h7-----------------------------|-----------------------------------|

Chorus
     D                                    riff 2
Roll - in', rollin', rollin' on the river

Riff 2
B----/7------7---5---3--/5---3-------|
G------------------------------------|
D----/7------7---5---4--/5---4-------|

Verse - end w/riff 3

Riff 3
B--------------7---------------------|-----------------------------------|
G--------7--9--9b10r9--7-------------|-----------------------------------|
D---7h9------------------------------|-----------------------------------|

Chorus

Intro

Solo
B-----------7--7--8--7--7--8--7--8--7--8--7--8--7--8--7---------------|
G-----------7--7--7--7--7--7--7--7--7--7--7--7--7--7--7---------------|
D-----7--9--7--7--9--7--7--9--7--9--7--9--7--9--7--9--7------7--------|
A--/9----------------------------------------------------9p7----------|

B--/10-10-10-----------------------7--7--8--7--7--8--7--7--8--7-------|
G--/11--------9--7-----------------7--7--7--7--7--7--7--7--7--7-------|
D-------------------9--7-----7--9--7--7--9--7--7--9--7--7--9--7-------|
A-------------------------/9------------------------------------------|

B--7--7---------------------------------------------------------------|
G--7--7------------------------4--6p5h6--6-7--6p5h6--6-4--6p5h6-------|
D--7--7---------------7p6h7--7----------------------------------------|
A--------9--9--5--5---------------------------------------------------|

G-----------6--7p6h7--7-9--7p6h7--7-6--7p6h7--7-----------------------|
D--9p8h9--9-----------------------------------------------------------|

Chorus

Intro

Verse

Chorus

Intro - end on D

http://www.sparkystabs.co.uk