Don't dream its over By Crowded House

  Asus    D7sus2
e:--5---|---5---|
B:--5---|---5---|
G:--7---|---5---|
D:--7---|---7---|
A:--5---|---5---|
E:--5---|---5---|


The intro is strumed Asus D7sus2  G  Repeat

Asus
There is freedom within
F#
There is freedom without
G                                   F#m                    
Try and catch the deluge in a paper cup.
Asus
Theres a battle ahead
F#m
many battles are lost 
G                                                                           
but you never see the end of the road when your
F#m
 traveling with me.
                           
Chorus
G       A             D         Bm                           
Hey now Hey now don't dream its over
G       A                D           Bm                       
Hey now Hey now when the world comes in
G         A            
They come They come
D                     Bm              
to build a wall between us
G
They won't win

NOW I'm towing my car 
Theres a hole in the roof
My possessions are causing me suspicion but theres no proof.

In the paper today 
Tales of war and of waste 
but you turn right over to the TV page

chorus

Break:

e:-------------------------|---------------------------------|
B:-------------------------|---------------------------------|
G:-------2--0--------------|--------2--0---------------------|
D:----0--------0--2--2--2--|-----0--------0--2--2h4p2p0------|
A:0h2-------------3--3--3--|0h2--------------3------------2--|
E:----------------2--2--2--|-----------------2---------------|

e:--------------------------|-----|
B:--------------------------|--1--|
G:--------2--0--------------|-----|
D:-----0--------0--2--2--2--|--2--|
A:0h2--------------3--3--3--|--3--|
E:-----------------2--2--2--|-----|

(final verse)

Now I'm walking again 
to the beat of a drum
and I'm counting the steps to the door of your heart

Only shadows ahead 
The'll be clear in the roof
get to know the feeling of liberation and release

chorus and end.

Note the end repeats GADBm