Cutting Crew - (I Just) Died in Your Arms

Intro (strings)
Bm   | Esus4  Em | Asus4 A   | F#m   x2

Cello (second time)
---------------|----------------|---------------|----------------|---------------|
---------------|----------------|---------------|----------------|---------------|
---------------|----------------|---------------|----------------|---------------|
---------------|----------------|---------------|----------------|---------------|
---------4-5-7-|----5-4---------|-----------4-5-|----4-----------|---------------|
-7-------------|------------7-5-|---------7-----|------7-----5---|-7-------------|

Intro Chorus
Bm        Em                  A
I, I just died in your arms tonight           
   F#m                        Bm
It must've been something you said      
       Em                  A     F#m
I just died in your arms tonight

Bm (played during verse 1)
--------5--------|---------------|-------5---7-------|---------------|
-----------------|---------------|----------------7--|---------------|
----6-7----------|---------------|---6-7-------------|---------------|
-----------------|---------------|-------------------|---------------|
-----------------|---------------|-------------------|---------------|
-----------------|---------------|-------------------|---------------|

Verse
Bm
I keep looking for something I can't get
Gmaj9
Broken hearts lie all around me and
Asus4                          F#m
I don't see an easy way to get out of this
Bm
Her diary sits by the bedside table
Gmaj9
The curtains are closed, the cat's in the cradle.
Asus4                                        F#m
Who would've though that a boy like me could come to this

----------------|
----------------|
---7-7---7-7----|
---7-7---7-7----|
-------9-----9--|
----------------|

Chorus
 Bm                Em                A                     F#m
-----------------|-----------------|---------------------|-----------------|
-----------------|-------8---------|---------------------|-----------------|
-------7---------|-----9-----9-----|-----6--9----9-6-----|-----------------|
-----9-----9-----|---9-------------|-7---------------9-7-|-----------------|
---9-------------|-7---------------|---------------------|-9-7-9-7-9-7-5---|
-7---------------|-----------------|---------------------|-----------------|

Bm        Em                  A
I, I just died in your arms tonight           
   F#m                        Bm
It must've been something you said      
       Em                  A      F#m    Bm
I just died in your arms tonight.     Oh 'cause 
       Em                  A
I just died in your arms tonight
   F#m                       Bm
It must've been some kind of kiss
  Em                A
I should've walked away 
F#m
I should've walked away

Interlude
Gmaj9                                 Bm
-7-7---------------|------------------7-|-------------|--7---7-------5-|-------------|
-----7-7-10-10-----|-7-7--------------7-|-------------|--7---7---------|-------------|
---------------9-9-|-----7-7-9p7---7----|-------------|----------6-7---|-------------|
-------------------|-------------9------|-------------|----------------|-------------|
-------------------|--------------------|-------------|----------------|-------------|
-------------------|--------------------|-------------|----------------|-------------|

Verse
Is there any just cause for feeling like this?
On the surface I'm a name on a list

--------------|------------------|-----------------|---------12---------|-------------|
--------7--7--|---5---5---3---3--|-----------------|-------------10-----|-------------|
--------7--7--|---6---6---4---4--|-----------------|--------------------|-------------|
--------------|------------------|--2------2-------|--------------------|-------------|
--------------|------------------|-----------------|--------------------|-------------|
--------------|------------------|-----------------|--------------------|-------------|
        I  try    to  be  discreet,          then blow it again

---|--------------------------|-----------------|
---|-12-12-------10--10-------|-7-7-----5-5-----|
---|-------11-11---------9--9-|-----7-7-----4-4-|
---|--------------------------|-----------------|
---|--------------------------|-----------------|
---|--------------------------|-----------------|
I've lost and    found, it's my final mistake,

---|------------------------|----------------------------|
---|--12-12-------10-10-----|-7---7---------5-----7---7--|
---|--------11-11-------9-9-|---------7--7----4---7---7--|
---|------------------------|----------------------------|
---|------------------------|----------------------------|
---|------------------------|----------------------------|
She's loving by   prox-y, no give and all take, 'Cause I've

----------------------|-------------------|-----------------|-----------------|
---5--5--------3---3--|-------------------|-----------------|-----------------|
---6--6--------4---4--|-------------------|-----------4b----|--2-2---2-2---2--|
----------------------|------2-2---2------|-----------------|--2-2---2-2---2--|
----------------------|--2-4-----4--------|-----------------|------4-----4----|
----------------------|-------------------|-----------------|-----------------|
 been thrilled to fantasy            one too many times

Chorus

Middle
G
It was a long hot night,
Em
-14-------------|
-15-------------|
-16-------------|
----------------|
----------------|
----------------|
She made it easy, she make it feel right
G
But now it's over the moment has gone I
F#
-----------------------|-------2-------2------|
----2-------3-------5--|----------------------|
-----------------------|----3-------3---------|
-4-------4-------4-----|----------------------|
-----------------------|----------------------|
-----------------------|----------------------|
follwed my hands not my head; I know I was wrong

Solo
 Bm                      Em                 A                   F#m
-14--------------------|--------12--------|-------------------|---------------------|
----12-----------------|-----------10-----|-------------------|---------------------|
----------------14-----|------------------|-------------------|---------------------|
-------------------12--|------------------|-----9b--------9-7-|-9b-9b---9b------9-7-|
-----------------------|------------------|-0-----------------|---------------------|
-----------------------|------------------|-------------------|---------------------|

 Bm                Em                 A              F#m
-----------------|------------------|--------------|---------------------------------|
-----------------|------------------|--------------|---------------------------------|
-----7----9------|-7-----9----7--7--|---6--4---2---|-2-------------------------------|
-9-----9-------9-|----9-------------|--------------|---4-2-4-2-0-2-0---0-------------|
-----------------|------------------|--------------|-----------------2---2-0-2-0---0-|
-----------------|------------------|--------------|-----------------------------2---|

Chorus

Outro solo
-7-7---7-5------5-5--|----------------|-------------------|------------------|
-8-8---8-7------3-5--|----------------|--------------3----|-3-2--------------|
---------------------|----------------|-------------------|-----4-4----------|
---------------------|----------------|-------------------|------------------|
---------------------|----------------|-------------------|------------------|
---------------------|----------------|-------------------|------------------|

-7---7-5----5-----5--|----------------|----12--------12--12------|------------------|
-8---8-7----3-----5--|----------------|-------10--10--------10---|------------------|
---------------------|----------------|--------------------------|-9----------------|
---------------------|----------------|--------------------------|------------------|
---------------------|----------------|--------------------------|------------------|
---------------------|----------------|--------------------------|------------------|

-10-10--10-10------12-9-|----------------|----------------|------------------|
--8--8---8--------------|----------------|------------3---|-3-2--------------|
------------9---------9-|----------------|----------------|-----4-4----------|
-------------------12---|----------------|----------------|------------------|
------------------------|----------------|----------------|------------------|
------------------------|----------------|----------------|------------------|

-10---10-10----12-------|--------------|---12--------12--12------|
--8----8--7----------10-|--------------|------10--10--------10---|
----------------------9-|--------------|-------------------------|
---------------12-------|--------------|-------------------------|
------------------------|--------------|-------------------------|
------------------------|--------------|-------------------------|

http://www.sparkystabs.co.uk