Deacon Blue - Real Gone Kid

Intro riff
E||--------------7----------|--------------0----------|
B||----8---8-------------8--|----8---8-------------8--|
G||--7--------7-------7-----|--7--------7-------7-----|
D||-------------------------|-------------------------|
A||-------------------------|-------------------------|
E||-------------------------|-------------------------|

C    G  x2

             C
And I`d tear out the pages
                G
That I`ve got in these books
            C
Just to find you some words
                 G
Just to get some reward

And I`ll show you all the photographs
That I ever got took
And I`ll play you old 45`s
That now mean nothing to me

Bm
----7-----7-----7-----7--|----7-----7-----7-----7-|
----7-----7-----7-----7--|----7-----7-----7-----7-|
-7-----7-----7-----7-----|-7-----7-----7-----7----|
-9-----9-----9-----9-----|-9-----9-----9-----9----|
-------------------------|------------------------|
-------------------------|------------------------|
And you`re a real gone kid

C
-----8------8------8------8-|-----8------8------8------8-|
-----8------8------8------8-|-----8------8------8------8-|
--9------9------9------9----|--9------9------9------9----|
-10-----10-----10-----10----|-10-----10-----10-----10----|
----------------------------|----------------------------|
----------------------------|----------------------------|
And maybe now baby

B
----7-----7-----7-----7--|----7-----7-----7-----7-|
----7-----7-----7-----7--|----7-----7-----7-----7-|
-8-----8-----8-----8-----|-8-----8-----8-----8----|
-9-----9-----9-----9-----|-9-----9-----9-----9----|
-------------------------|------------------------|
-------------------------|------------------------|
Maybe now baby

C                                                           G
-----8------8------8------8-|-----8------8------8------8-|--------------|
-----8------8------8------8-|-----8------8------8------8-|-8------------|
--9------9------9------9----|--9------9------9------9----|-7------------|
-10-----10-----10-----10----|-10-----10-----10-----10----|--------------|
----------------------------|----------------------------|--------------|
----------------------------|----------------------------|--------------|
Maybe now baby                                       I`ll do what I should have did

Now I`ve stood on your shadow
And I`ve watched it grow
And it`s shaken and it`s driven me
And let me know
Let me know let me know let me know

About all the old 45s
And the paperback rooms
And it`s scattered all the photographs
Of summers and suns

And you`re a real gone kid
And maybe now baby
Maybe now baby
Maybe now baby
I`ll do what I should have did

                Bm7
`Cause you`re a real
A7sus4
Gone
C
Kid 

I cried and I craved
Hoped and I saved
And I put away those souvenirs souvenirs souvenirs
Cried and I craved
Hoped and I saved
And I put away those souvenirs souvenirs souvenirs

You`re a real gone kid
And maybe now baby
Maybe now baby
Maybe now baby
I`ll do what I should have did

                Bm7
`Cause you`re a real
A7sus4
Gone
FM7
Kid 

(C and G til fade)