Deftones-My Own Summer (Shove It)

Tune to dropped d down half a step.

Riff 1
      +         +        +       +
G#||------------------------------------||
C#||--0-11-12-0-11-8-0-8-0-8-7-0-8-5--5-||

Riff 2
      +       +       +       +
F#||---------------------------------||
C#||--0-7-8-0-8-5-0-5-0-5-7-0-8-4--4-||
G#||--0-7-8-0-8-5-0-5-0-5-7-0-8-4--4-||
C#||--0-7-8-0-8-5-0-5-0-5-7-0-8-4--4-||

Intro w/riff 1 x4

Verse w/riff1 x4
Hey you, Big Star
Tell me when it's over

Riff 2 x4

Verse w/riff 1 x8
Hey you, big mood
Guide me to shelter
'cause I'm through
When the two 
hits the six and it's summer

Chorus w/riff2 x4
SHOVE
Shove it Shove it Shove it
SHOVE
Shove it Shove it Shove it
THE SUN
Shove it Shove it Shove it
THE SUN
Shove it aside

Riff 3 (play to * 1st time and repeat)
      +       +       +       +          +       +       +       +    
D#||----------------------------------|----------------------------------|
A#||----------------------------------|----------------------------------|
F#||--9-9-9-9-9-9-9-9-9-9-9-9-9-9-9-9-|--9-9-9-9-9-9-9-9-9-9-9-9-9-9-9-9-|
C#||--8-8-8-8-8-8-8-8-8-8-8-8-8-8-8-8-|--8-8-8-8-8-8-8-8-8-8-8-8-8-8-8-8-|
G#||--8-8-8-8-8-8-8-8-8-8-8-8-8-8-8-8-|--8-8-8-8-8-8-8-8-8-8-8-8-8-8-8-8-|
C#||--8-8-8-8-8-8-8-8-8-8-8-8-8-8-8-8-|--8-8-8-8-8-8-8-8-8-8-8-8-8-8-8-8-|

  +       +      +       *
------------------------------|------------------||
------------------------------|------------------||
------------------------------|------------------||
--5-5-5-8-0--5-5-5-8-8-0-0-let|-ring-------------||
--5-5-5-8-0--5-5-5-8-8-0-0-let|-ring-------------||
--5-5-5-8-0--5-5-5-8-8-0-0-let|-ring-------------||
  <--------riff 4---------->

Bridge w/riff 3
I think god is moving
It's tongue
Theres no crowds in the street
And no sun in
(my own summer)

Verse (no guitar)
The shade is a tool
A device
A savior
See I try and look up
To the sky
But my eyes burn

Chorus
SHOVE
Shove it Shove it Shove it
SHOVE
Shove it Shove it Shove it
THE SUN
Shove it Shove it Shove it
THE SUN
Shove it inside                 x2

Bridge
I think eyes move it
It's time
Theres no crowds in the street
End of summer

w/riff 4
In my
Own
Summer

Chorus (play last two lines using just root notes of chords)

http://www.sparkystabs.co.uk