Dum Dums-Army Of Two

G		320033
G/F#		2x0033
Em7		022033
Cadd9		x32033
Dsus4/F#	2x0233
Em		022000
Am		x02210
B		x2444x
D		xx0232
F		133211

There's multiple guitar parts during the song, definitely two leading up to the first chorus. I've tried to accomodate for both parts as Josh had to do live.

Intro
   G
E|-------3-------3-|-------3---------|
B|---3-------3-----|---3-------3-----|
G|-----0-------0---|-----0-------0---|
D|-----------------|---------------0-|
A|-----------------|-----------------|
E|-3---------------|-----------------|

Verse
  G       G/F#      Em7     Cadd9      G      D         Cadd9
|-----------------|-----------------|-----------------|-------2---3-----
|-----3-------3---|-----3-------3---|-----3-------3---|---3---3---3-----
|---0---0---0---0-|---0---0---0---0-|---0---0---2---2-|---0-----------0-
|-----------------|-----------------|---------0-------|-----------------
|-----------------|---------3-------|-----------------|-3---------------
|-3-------2-------|-0---------------|-3---------------|-----------------
     Look           Eyes              Take              Pain
  G       G/F#      Em7     Cadd9      G      D         Cadd9
|-----------------|-----------------|-----------------|-------2---3-----
|-----3-------3---|-----3-------3---|-----3-------3---|---3---3---3-----
|---0---0---0---0-|---0---0---0---0-|---0---0---2---2-|---0-----------0-
|-----------------|-----------------|---------0-------|-----------------
|-----------------|---------3-------|-----------------|-3---------------
|-3-------2-------|-0---------------|-3---------------|-----------------
     Fall           Arms              World             Fade
  Em                Am                B                 Em
|-----------------|-----------------|-----------------|---------0-------
|---------0-------|---------1-------|---------4-------|-----------0-----
|-----0-----0-----|-----2-----2-----|-----4-----4-----|-----0-------0---
|-------2-----2---|---2---2-----2---|---4---4-----4---|-------2-------2-
|---2-----------2-|-0-------------0-|-2-------------2-|---2-------------
|-0---------------|-----------------|-----------------|-0---------------
  Rain              Hearts            Still             Here
  Cadd9                   D
|-------3-------3-|---------2-3---3-|
|---3-------3-----|---3-----3-3---3-|
|-----0-------0---|-----0---2-2---2-|
|-----------------|-------0---------|
|-3---------------|-----------------|
|-----------------|-----------------|
  Right

Verse
G    G/F#      Em7      Cadd9    G    D        Cadd9
Look into these eyes of mine and take away my  pain
G    G/F#    Em7     Cadd9          G     D         Cadd9
Fall into my arms, tonight, let the world around us fade

Bridge
Em                      Am
The rain will fall, our hearts will break
    B               Em               C                 D
But still I will be here beside you, right beside you

Chorus
G                 G/F#                    Em7 
When the world is against you, I will protect you
Cadd9               D
Darling we'll be an army of two
G                      G/F#                    Em7 
When your life's going wrong, our love will be strong
Cadd9                 D     
Darling we'll be an army of two

G   G/F#   Em7  Cadd9  x2

w/verse
When the burdens of the world are on me, an people seem unkind
I just need to be beside you, you give me peace of mind
And when I fail to be everything, I tell you I will be
I know in your eyes I'll find, forgiveness for me

w/bridge
The rain will fall, our hearts will break
But still I will be here beside you, right beside you

w/chorus x2
When the world is against you, I will protect you
Darling we'll be an army of two
When your life's going wrong, our love will be strong
Darling we'll be an army of two

G   G/F#   Em7  Cadd9

   D                   Em7         G/F#        Cadd9
Oh forgiveness and you give me completeness in everything you do
      D                          Em7       G/F#          Cadd9
And I know when I'm lost in this desperate world, you're my refuge
          Em7               Cadd9        Em7            Cadd9
I want to fall down at your feet, walk beside you in the street
              Em7               Cadd9
Be proud that you are here with me, in front of everyone

w/chorus x3
When the world is against you, I will protect you
Darling we'll be an army of two
When your life's going wrong, our love will be strong
Darling we'll be an army of two

G                 G/F#                    Em7 
When the world is against you, I will protect you
Cadd9               D
Darling we'll be an army of two

G  G/F#  Em7  C  D  F

http://www.sparkystabs.co.uk