Dum Dums-Caught Me In A Trap

Intro
   G               F             Em            Eb              x2
e|-7-7-5--5-7--8-|-8-7--7-8--7-|-7-5--5-7--6-|-6-6-6-6-6-6--|
B|-8-8-8--8-8--8-|-8-8--8-8--8-|-8-8--8-8--8-|-8-8-8-8-8-8--|
G|-0-0-0--0-0--0-|-0-0--0-0--0-|-0-0--0-0--0-|-0-0-0-0-0-0--|
D|---------------|-------------|-------------|--------------|

Verse
NC
Nothing, nothing is going on in my mind, 
                       C                                     D
All that I know is I'm getting nothing done, getting nothing done,
    NC
I'm wasted, roaming the highways and feeling low,
                        C                                     D
wasting my life andIi'm getting nothing done, getting nothing done

Chorus
        G                    G/F#
And its caught me in a trap, theres no going back

e||--------------------|-------------------|
B||--------------------|-------------------|
G||--4-5----5--4-5-----|--4-5--5--4---5----|
D||--5-5----5--5-5-----|--5-5--5--5---5----|
A||--------------------|-------------------|
E||--------------------|-------------------|
     Future up a-head,    I am on the rack
G                             D 
Pulling out my hair, but it's making it worse cause 
C                               D
Every day I live is another day wasted

Play intro

Verse
Lessons, lessons I've learned in my history 
Have no effect and I'm getting nothing done, getting nothing done, 
My school books taught me to think like the multitudes 
And I'm just a clone and I'm getting nothing done, getting nothing done.

Chorus
And its caught me in a trap, theres no going back 
Future up ahead, I am on the rack 
Pulling out my hair, but it's making it worse cause 
Every day I live is another day wasted                   x2

Play intro

Middle 8
   C                D              Em         G/F#
On Monday, I get my dole and go to bed, yeah
   C                     D          Em         G/F#
On Tuesday skip work and watch TV instead, yeah
   C                   D              Em    
On Wednesday, I go out walking in the rain,
    G/F#       C                                   D
and then comes Thursday, Friday, Saturday, Sunday, Monday comes again..

Chorus
And its caught me in a trap, theres no going back 
Future up ahead, I am on the rack 
Pulling out my hair, but it's making it worse cause 
Every day I live is another day wasted                   x2

Play intro x4
Another day wasted...

End on G