Dum Dums-Everything

F#5	244xxx
G#7	434xxx
B	x24442
F#oct	x 9 x 11 xx
G5	355xxx

Intro
   F#5           G#7             B
E|-----------------------------|----------2--2----|
B|-----------------------------|----------4--4----|
G|-----------------------------|-4--4--4--4--4----|
D|-4--4--x-x-x-x-4--4--x-x-x-x-|-4--4--4----------|
A|-4--4--x-x-x-x-x--x--x-x-x-x-|-2--2--2----------|
E|-2--2--x-x-x-x-4--4--x-x-x-x-|------------------|       x3
                                       <-let ring->

   F#5           G#7             B  Bsus2 B5      B
E|-----------------------------|----------------|-2--------|
B|-----------------------------|-4--2-----------|-4--------|
G|-----------------------------|-4--4-----4-----|-4--------|
D|-4--4--x-x-x-x-4--4--x-x-x-x-|-4--4-----4-----|-4--------|
A|-4--4--x-x-x-x-x--x--x-x-x-x-|-2--2-----2-----|-2--------|
E|-2--2--x-x-x-x-4--4--x-x-x-x-|----------------|----------|

Verse
F#oct
So what if I don't want to be like you
A slave, working to the bone
For a cheque on a Friday, 
Condemned to join the family business
Like my dad.

Verse
So what if I don't want to go school
And be a fool, driven by a brainwashed system,
Like a first kiss or a disgruntled mistress
I can't handle this.

Chorus
F#5  G#7     B
Everything I do
F#5      G#7  B
Sucks me into you
F#5      G#7     B
Who made you the judge
   F#5  G#7     B
Of everything I do?
B
Do

Verse
A difficult phase, lust crazed, 
Getting sick of the sin I commit
Like a hypocrite
And the aching and the no direction.

Verse
So what if I want to be a virgin
and not do pills or felonies,
I don't want to go to jail
And get my butt groped by an ape, 
By mistake, on our first date
And get dazed.

Chorus

NC
I'm getting scared about the people on T.V
Don't want to live and die for the treasures 
That they seek
I wanna wreck my town, 
                          G5
And live up in the trees. Aaahhhhh

   F#5     G#7            B                
E|---------------------|----------------------|
B|---------------------|----------------2h4h2-|
G|---------------------|--------3h4h3h4-------|
D|--------------4h6h4--|----------------------|
A|----4h6h4------------|----------------------|
E|---------------------|----------------------|    x2

Chorus x2

http://www.sparkystabs.co.uk