Dum Dums - Kid Set Fire

Intro
   A (riff 1)      x3   G5                  C C#D                A (riff 2)
E|-------------------||-----------------|-------------------||-------------------------||
B|-------------------||-----------------|-------------------||-------------------------||
G|*-----6h7-6-6-6---*||-----------------|---5-6-7---7-7-x-x-||*--6--6--6--6--6--6-----*||
D|*-7-7-7-----7-7---*||-5---5---5-5-5---|-x-5-6-7---7-7-x-x-||*--7--7--7--7--7--7-----*||
A|--0-0-0-----0-0----||-5---5---5-5-5---|-x-3-4-5---5-5-x-x-||---0--0--0--0--0--0------||
E|-------------------||-3---3---3-3-3---|-x-----------------||-------------------------||

Verse w/intro
Moshpit give me a sign
It's where you gotta go go go, when the boy turns flame
My insides are so corrupt
I flip down the middle button and self-destruct

Chorus  x2
A          
You get bitten
You get bitten
C(G bass)       D
If it's in your hands
         F
When the kid set fire
C(G bass)            D
Ain't got nowhere to burn burn burn

    A              x3
E|-------------------||
B|-------------------||
G|*-----6h7-6-6-6---*||
D|*-7-7-7-----7-7---*||
A|--0-0-0-----0-0----||
E|-------------------||

Verse
Dancefloor is gonna be vacuumed
When the mice mice mice, start thinking for themselves
Sense it slashing through my skin
Corporations burning, let the fun begin

Chorus x2

Instrumental x2 (similar to intro again)
Riff2 x4 G    C C#D Riff 2 x2

Chorus x2

Riff 2 x4

http://www.sparkystabs.co.uk