Dum Dums - Robot Boy

Intro
E|-----------------|-----------------|-----------------|-----------------|
B|-----------------|-----------------|-----------------|-----------------|
G|-5-5-----5-5-----|-5-5-----5-5-5---|-----------------|-----------------|
D|-5-5---5-5-5---5-|-5-5---5-5-5-5-3-|-----3-3-3-5-5-6-|-----6-6-6-6-6-6-|
A|-3-3-----3-3-----|-3-3-----3-3-3-3-|-----3-3-3-5-5-6-|-----6-6-6-6-6-6-|  x2
E|-------3-------3-|-------3-------1-|-----1-1-1-3-3-4-|-----4-4-4-4-4-4-|

Verse w/intro
Shampoo eyesting kiddies gonna cry
Lemonade sick feeling, im gonna die 
I'll be an asset to my colleagues and company
    C5             F5          G#5
I'm walking on the edge of the motorway bridge

Chorus
     A5               C5   G5      A5    
Be a clone, get stoned and they'll leave you alone
 C5    G5     A5            F5    G5
You've got to take it home, robot boy
An anonymous cog in a cold machine,
Pople swearing at me, robot boy 

w/intro
lala lala lala lala aah ooh (x2) 

Verse w/intro
Air conditioned, over entertained
Eyes glazed over by a cigarette
At the end of time with our serious faces faces aces
Our cans of cola and hiroshima

Chorus
Be a clone, get stoned and they'll leave you alone
You've got to take it home, robot boy
An anonymous cog in a cold machine, 
People swearing at me, robot boy

Chorus
Be a clone, get stoned and they'll leave you alone
You've got to take it home, robot boy 
No you'll never get me, never get me
Robot boy 

Outro (this follows the bass. don't worry about being too accurate!)
E|-----------------|-----------------|-----------------|-----------------|-----------------|
B|-----------------|-----------------|-----------------|-----------------|-----------------|
G|-5-5-----5-5-----|-5-5-----5-5---7-|---7-7-7-7-------|-----------------|-----------------|
D|-5-5---5-5-5---5-|-5-5---5-5-5-5-7-|---7-7-7-7-2-2-3-|---3-3-3-3-5-5-6-|---6-6-6-8-8-8-8-|
A|-3-3-----3-3-----|-3-3-----3-3---5-|---5-5-5-5-2-2-3-|---3-3-3-3-5-5-6-|---6-6-6-8-8-8-8-|     x3
E|-------3-------3-|-------3-----3---|-----------0-0-1-|---1-1-1-1-3-3-4-|---4-4-4-6-6-6-6-|

E|-----------------|-----------------|
B|-----------------|-----------------|
G|-5-5-----5-5-----|-5-5-----5-5---3-|
D|-5-5---5-5-5---5-|-5-5---5-5-5-5-3-|
A|-3-3-----3-3-----|-3-3-----3-3---1-|
E|-------3-------3-|-------3-----3---|

http://www.sparkystabs.co.uk