Dum Dums - Travelling At Speed

Intro
   D5                Bb6               Fsus4             Em 
e|-----------------|-----------------|-----------------|-----------------|
B|-----------------|-----------------|-----------------|-----------------|
G|-----------------|-----------------|-----------------|-----------------|        x2
D|-7-7-7-7-7-7-7-7-|-5-5-5-5-5-5-5-5-|-8-8-8-8-8-8-8-8-|-5-5-5-5-5-5-5-5-|
A|-5-5-5-5-5-5-5-5-|-5-5-5-5-5-5-5-5-|-8-8-8-8-8-8-8-8-|-7-7-7-7-7-7-7-7-|
E|-----------------|-----------------|-----------------|-----------------|

Verse
  D5           Bb5 
I woke up in a sweat last night 
  G5           C5        Bb5 A5 
I realised I'd chosen my life 
        D5                   Bb5 
And the cleanliness drove me over the edge 
       G5                C5       Bb5  A5 
At the supermarket where noone existed 
D5             Bb5                 G5             C5   Bb5 A5
Claustrophobic hairspray, absolute sense of no control
       D5                        Bb5
And my heart beats faster than revolving planets
       G5                 C5              Bb5    A5 
Like a renegade satellite tripping on the canvas 

Bridge
D5                  G5 
Walking down to the video store 
C5                     F5      F/E 
Out of time before the stars expire 
D5                      G5 
I see it clearly as Iím gathering speed 
C5               F5        F/E 
Iíve never felt alive like this 
D5       G5 
Over the airwaves calling me home 
C5                     F5         F/E 
Transmitting they will never give up 
D5                  G5
Iím at the point of no return now 
C5                     F5       F/E 
It's the place I could never go back 

Chorus
D5                 Bb5 
I think Iím in too deep 
               G5
Travelling at speed                       x2
               C5   Bb5    A5
Falling like a moon out of orbit       

w/intro

w/verse
The worldís so photogenic everything just turns me on 
To the reality the life that Iíve chosen 
Iíve chosen the wrong one 
Iím imagining the look on their faces 
When everyone seems so pure 
And Iíve done the unthinkable 
The thing they said I never could do 

w/bridge
Something eating at the pit of my chest 
Adrenaline overwhelming my thoughts 
Feels like Iím overheating 
Somehow Iím still gathering speed 
Over the airwaves calling me home 
Transmitting they will never give up 
Iím at the point of no return now 
It's the place I could never go back, yeah 

w/chorus
I think Iím in too deep 
Travelling at speed                  x4
Falling like a moon out of orbit  

Middle
D5                   G5              F5                F/E
At the bottom of the river, cheating death but for how long         
D5                 G5        F5         F/E                       x2
I love you, I just couldnít, ocean goes on and on

Solo
E|-----------------|-----------------|-------------------------|-------------------------|
B|-----------------|-----------------|-------------------------|-------------------------|
G|-7-7-7-7-7-7-7-7-|-9-9-9-9-9-9-9-9-|-10-10-10-10-10-10-10-10-|-10-10-10-10-10-10-10-10-|
D|-----------------|-----------------|-------------------------|-------------------------|
A|-5-5-5-5-5-5-5-5-|-7-7-7-7-7-7-7-7-|-8--8--8--8--8--8--8--8--|-8--8--8--8--8--8--8--8--|
E|-----------------|-----------------|-------------------------|-------------------------|

-----------------|-----------------|-----------------|-----------------|
-----------------|-----------------|-----------------|-----------------|
-----------------|-----------------|-----------------|-----------------|
-8-8-8-8-8-8-8-8-|-8-8-8-8-8-8-8-8-|-7-7-7-7-7-7-7-7-|-7-7-7-7-7-7-7-7-|
-5-5-5-5-5-5-5-5-|-5-5-5-5-5-5-5-5-|-8-8-8-8-8-8-8-8-|-8-8-8-8-8-8-8-8-|
-----------------|-----------------|-----------------|-----------------|

w/chorus
I think Iím in too deep 
Travelling at speed 
Falling like a moon out of orbit (x2) 

Oh oh oh uhoh oh oh oh 
Uhoh oh oh uhoh oh oh oh 
Uhoh oh oh oh uhoh oh oh oh 
Uhoh oh oh

http://www.sparkystabs.co.uk and edmund_blackadder2000@hotmail.com