Echobelly-King Of The Kerb        
                                                        
E||--------4----------2----|-------------------------|--------4----------2----|
B||--2--2-------0--0-------|--------------------2----|--2--2-------0--0-------|
G||------------------------|--3h-4p-3-----3--3-------|------------------------|
D||------------------------|-----------4-------------|------------------------|
A||------------------------|-------------------------|------------------------|
E||------------------------|-------------------------|------------------------|
                           C#          B            F#                                                  
-------------------------|--------4----------2----|-------------------------|
--------2--4--4r---2--0--|--2--2-------0--0-------|--------------------2----|
--3h-4-------------------|------------------------|--3h-4p-3-----3--3-------|
-------------------------|------------------------|-----------4-------------|
-------------------------|------------------------|-------------------------|
-------------------------|------------------------|-------------------------|
  C#         B             F#                         C#         B
--------4----------2----|--------------------------|--------4----------2----|
--2--2-------0--0-------|--4b-2--2--4b-2--2--4b-2--|--2--2-------0--0-------|
------------------------|--------------------------|------------------------|
------------------------|--------------------------|------------------------|
------------------------|--------------------------|------------------------|
------------------------|--------------------------|------------------------|
  F#                          C#           B              F#                          
-------------------------|--------4----------2----|--------------------------|
--------------------2----|--2--2-------0--0-------|--4b-2--2--4b-2--2--4b-2--|
--3h-4p-3-----3--3-------|------------------------|--------------------------|
-----------4-------------|------------------------|--------------------------|
-------------------------|------------------------|--------------------------|
-------------------------|------------------------|--------------------------|

C#          B
Sugar smile savvy
    F#
The king of the kerb
      C#            B          F#
Got a temper in the style of a bomb
        C#             B
Got his friends in his pocket
   F#
Or safe behind bars
        C#         B              F#
All the local boys know what he's done

E        F#     E        F#     E        F#
He turns it on, he turns it on, he turns it on

E||-----------2--------6----7-|
B||--------2--------------7---|
G||--3h-4--------3--4---------|
D||---------------------------|
A||---------------------------|
E||---------------------------|

B         Ebm      G#m     F#
Same boys doing it for themselves
            E    F#        E        F# 
There's somebody out there doing it for you
B                 Ebm        G#m      F#  
Safe while you're paying out for your health
            E   B        C#      Ebm
They're the kings of the kerb
    E         B                  F#
And everybody knows what they're worth

E||--------4----------2----|-------------------------|--------4----------2----|
B||--2--2-------0--0-------|--------------------2----|--2--2-------0--0-------|
G||------------------------|--3h-4p-3-----3--3-------|------------------------|
D||------------------------|-----------4-------------|------------------------|
A||------------------------|-------------------------|------------------------|
E||------------------------|-------------------------|------------------------|
                          
-------------------------|
--------2--4--4r---2--0--|
--3h-4-------------------|
-------------------------|
-------------------------|
-------------------------|

C#          B
Sugar smile savvy
    F#
The king of the kerb
          C#            B           F#
Keeps the order in this part of the town
        C#             B
All the shadows in the alley
    F#
The shapes at the bar
        C#               B           F#
Like to service him when he does the round

E        F#     E        F#     E        F#
He turns it on, he turns it on, he turns it on

E||-----------2--------6----7-|
B||--------2--------------7---|
G||--3h-4--------3--4---------|
D||---------------------------|
A||---------------------------|
E||---------------------------|

repeat chorus

C#m       Ebm                C#m
Safe from harm and safe from greed
            Ebm                    C#m
A little protection is at that you need
          Ebm      E         F#
Safe from harm and safe from greed
               F#7      F#
They're just a racket machine

B         Ebm      G#m     F#
Same boys doing it for themselves
            E    F#        E        F# 
There's somebody out there doing it for you
B         Ebm      G#m     F#
Same boys doing it for themselves
            E    F#        E        F# 
There's somebody out there doing it for you
B         Ebm      G#m     F#
Same boys doing it for themselves
            E    F#        E           F#
There's somebody out there looking out for you
B                 Ebm        G#m      F#  
Safe while you're paying out for your health
            E   B        C#      Ebm
They're the kings of the kerb
            E   B        F#
They're the kings of the kerb

            E   B        C#      Ebm
They're the kings of the kerb
    E         B                  F#
And everybody knows what they're worth

Outro riff to fade
E||-----------2--0-----2--0---|
B||--------2------------------|
G||--3--4-----------3-------3-|
D||---------------------------|
A||---------------------------|
E||---------------------------|