Eels-Novocaine for the Soul

PIANO INTRO (Transcribed for guitar)
1---------13--------------------
2------------14-----14----14----
3--13--13--------15----13-------   Repeat 3 more times
4--15---------------------------
5-------------------------------
6-------------------------------

PLAY INTRO THROUGHOUT VERSE
VERSE
Life is hard,
And so am I,
You better give me something,
So I don't die,

CHORUS
1-------4---------5-----------4-----------5----------7----------6--------4--
2---------6---------7-----------6-----------7------7----------7--------6----
3-6--6----------7--------6--6-----------7------------------6---------6------
4-6--6-------------------6--6--------------------9--------------------------
5-4--4-------------------4--4-----------------------------------------------
6---------------------------------------------------------------------------
        Novocaine             For the Soul             Before I sputter out

VERSE
1-------4-----------5---------
2---------6-----------7-------
3--6--6-----------7-----------
4--6--6-----------------------
5--4--4-----------------------
6-----------------------------
        Life is white,
        And I am black,
	Jesus and his lawyer,
	Are coming back,
	Oh my darling,
	Will you be there,

1-------7---------6-------------4----
2-----7---------7-------------6------
3-------------6-------------6--------
4---9--------------------------------   REPEAT 2X
5------------------------------------    
6------------------------------------
         Before I sputter out,
	 Before I sputter out,
	 Before I sputter out,

1-----4------7----------6----4-----
2---5---5------7------7---7----5---
3-4-------4------4--6--------------
4----------------------------------
5----------------------------------
6----------------------------------




*This part is not in time, or else it wouldn't fit w/the words*
1-----4-------------7--------------6------------9----
2---5---5--------------7--------7-------7---------9--
3-4-------4------4-------4---6-----------------------
4--------------------------------------------9-------
5----------------------------------------------------
6----------------------------------------------------
    Guess who's living here,w/the great undead,


1--------12----------11--------------6---------4---------
2-----------------------12--------7-------7-------6------
3----13-----------------------6----------------------6---
4--------------------------------------------------------
5-14-----------------------------------------------------
6--------------------------------------------------------
   This paint by #'s life, is f***ing with my head

1-------------------------------------------------
2------------0-------0-------0-------0------------
3----------1---1---1---1---1---1---1---1----------
4--------2-------2-------2-------2-------2--------
5-------------------------------------------------
6-------------------------------------------------
 once again

SOLO (w/lots of electronica noise)
     ~~~~~~~~~~~~~~~~			    ~~~~~~~
1-----------------------------------------------------
2-----------------------------------------------------
3---6--------4-------8b(9)(9)(9)(9)(9)rb(8)-6---------
4-----------------------------------------------------
5-----------------------------------------------------
6-----------------------------------------------------

Start playing intro 3 times
PLAY INTRO THROUGH VERSE
Life is good,
And I feel great,
'Cause mother said I was,
A great mistake,
Novocaine,
For the Soul,
You better give me something,
To fill the hole,

1-------7---------6-------------4----
2-----7---------7-------------6------
3-------------6-------------6--------
4---9--------------------------------   REPEAT 6X
5------------------------------------    
6------------------------------------
         Before I sputter out,
	 Before I sputter out,
	 Before I sputter out,
	 Before I sputter out,
	 Before I sputter out,
	 Before I sputter out,
	 Before I sputter out,
Play the intro 'till the end.