Elastica-Connection

Intro
e|---------------|----------------|---------------|---------------|
B|---------------|----------------|---------------|---------------|
G|---------------|----------------|---------------|-8---7--6---6--|
D|-8---6--8---8--|-8---6--8----8--|-8---6--8---8--|-8---7--6---6--|
A|-8---6--8---8--|-8---6--8----8--|-8---6--8---8--|---------------|
E|---------------|----------------|---------------|---------------|

Verse
  Bb                                                    Eb    D Db
e|-----------------|-----------------|-----------------|----------------|
B|-----------------|-----------------|-----------------|----------------|
G|-----------------|-----------------|-----------------|-8-8--7-6-6-6-6-|
D|-8-8-8-8-8-8-8-8-|-8-8-8-8-8-8-8-8-|-8-8-8-8-8-8-8-8-|-8-8--7-6-6-6-6-|
A|-8-8-8-8-8-8-8-8-|-8-8-8-8-8-8-8-8-|-8-8-8-8-8-8-8-8-|-6-6--5-4-4-4-4-|
E|-6-6-6-6-6-6-6-6-|-6-6-6-6-6-6-6-6-|-6-6-6-6-6-6-6-6-|----------------|

w/verse
Riding on any wave
There is the luck you crave
They don't believe it now, they just think it's stupid
So got anything ?
Anyone could have done
Who would've cared at all, not you

F#
Another heart has made the trade
Forget it, forget it, forget it

  Eb
I don't understand how a heart is a spade
    F
But somehow the vital connection is made 

w/verse
Riding on anything
Anything's good enough
Who would've thought it of someone like you
Just as they brought me round
Now that they brought you down
Roundabout and roundabout 
Who wants a life anyway ? 

F#
Another heart has made the grade
Forget it, forget it, forget it

  Eb
I don't understand how the last card is played
    F
But somehow the vital connection is made