All You Good Good People-Embrace

Chords
F#	  244322
B  	  X24442
E         022100

Intro and verse riffs 
 F#                B                 F#              E
e----2-----------------------------|----2-------------------------|
B-------2--------2------4----4-2---|------2----------5---4---2----|
G-------------3------------4------4|------------3---------------4-|
D---------2h4----------------------|--------2h4-------------------|
A-------------------2--------------|------------------------------|
E-2--------------------------------|2-----------------------------|

 E                B                 F#                 B
e----0----0-----------------------|----2--------------------------|
B-----------0----------4----4-2---|------2-------------4---4-2----|
G------1------------------4------4|------------3---------4------4-|
D--2------------------------------|--------2h4--------------------|
A-------------------2-------------|-----------------2-------------|
E---------------------------------|2------------------------------|


[Verse 1]
F#                                B                          F#     
I feel like I meant something you always said you need more time
          E                                                       
well I'll stay right here and wait for good until I 
B                    F#
find a love worth mine
F#
Some day you've got it coming
   B                        F#
it hurts me when I read the signs
   E
so loud and clear that
                         B                 F#
I make you glad when I'm leaving first and crying

[Chorus]
E                  B                 F#
All you good good people listen to me         
F#                                            E
You're just about done with the way that you feel
                    B                             F#         
cos nothing rings home enough to dig your heels in
F#                                           E
You don't have to leave me to see what I mean
                   B                 F#      B
All you good good people listen to me

[Bridge]
E          B            F#
All I wanna do is find my name upon the line,
E                B              F#
before I have to lose this, I want time
E                 B                F#
All you good good people listen to me,
F#                                           E
You're just about done with the way that you feel
                  B                             F#
Cos nothing rings home enough to dig your heels in
F#                                       E
You don't have to leave me to see what I mean
              B                          F#
Lose all your fears they are keeping you down
F#                                  E
You don't have to fake it while I'm around
                  B                F#      B
All you good good people listen to me