Wonderful Tonight - Eric Clapton

Intro
    G              D               C               D
e]------------------------------------------------------------12-----|
B]-----------------------------------------------------12-13-----15--|
G]-----14b16b14-12-14--14b16b14-12-----14b16b14-12-14----------------|
D]---------------------------------14--------------------------------|

    G              D               C              D 
e]-----------------------------------------------------------------11/12-12/10-|
B]-----------------------------------------------------11/12-12/13-------------|
G]-----14b16b14-12-14--14b16b14-12------14b16b14-13/14-------------------------|
D]---------------------------------14------------------------------------------|

Verse
G                      D
    Itís late in the evening
C                           D
    Sheís wondering what clothes to wear
G                    D
    She puts on her make up
C                     D
    And brushes her long blonde hair
C                  D
    And then she asks me
                   Em
    Do I look alright?
               C             D            G
    And I say yes, you look wonderful tonight

Intro - part 2

Verse
   We go a party
   And everyone turns to see
   This beautiful lady
   Is walking around with me
   And then she asks me
   Do you feel alright?
   And I say yes, I feel wonderful tonight

Middle
D          C
   I feel wonderful
       D               G         D       Em
   Because I see the love light in your eyes
            C            D
   And the wonder of it all
                C              D
   Is that you just donít realize
                G
   How much I love you

Intro

Verse
   Itís time to go home now
   And Iíve got an aching head
   So I give her the car keys
   And she helps me to bed
   And then I tell her
   As I turn out the light
   I say my darling, you were wonderful tonight
Em        C               D            G
   Oh my darling, you are wonderful tonight

   G              D             C     D
e]------------------------------------11/12-11/12----12-----|
B]--------------------------15--------------------15----15--|
G]---14b16b14--12-14--14b16b----16b14-----------------------|
D]----------------------------------------------------------|

   F              D               C               D
e]---------------------------------------------------------12-----|
B]---------------------------------------------------12-13----15--|
G]---14b16b14--12-14--14b16b14-12-----14b16b14-12-14--------------|
D]--------------------------------14------------------------------|

http://www.sparkystabs.co.uk