Anaesthetic                                        |       Key
                                                   |-------------------
Standard Tuning                                    |/= slide up
                                                   |\= slide down
                                                   |(12)= ringing note
INTRO:                                             |___________________
                                                 
Guitar 1 (Slight Distortion)

E|--7---7---8---8---5---5---8---8------------------------|
B|----8---8---8---8---8---8---8---8----------------------|
G|-------------------------------------------------------|
D|-------------------------------------------------------|
A|-------------------------------------------------------|
E|-------------------------------------------------------|
                   ^(Play four times)^

Guitar 2 (Clean)

E|-------------------------------------------------------|
B|-------------------------------------------------------|
G|------0--------0--------0--------0---------------------|
D|-------------5-----------------5-----------------------|
A|----5----5-3----------3----0-3-------------------------|
E|--3---------------0-1----------------------------------|
                   
E|-------------------------------------------------------|
B|-------------------------------------------------------|
G|------0--------0--------0--------0---------------------|
D|-------------5-----------------5-----------------------|
A|----5----5-3----------3----0-3-------------------------|
E|0-3---------------0-1----------------------------------|
                    ^(Play three times)^

Guitar 3 (Clean)

E|-------------------------------------------------------|
B|-------------------------------------------------------|
G|-------------------------------------------------------|
D|-------------5-----------------5-----------------------|
A|----5----0-3----------3----0-3-------------------------|
E|0-3---------------0-1----------------------------------|
                    ^(Play four times)^


INTRO 2:

Guitar 1 (Distortion)

E|-------------------------------------------------------|
B|-------------------------------------------------------|
G|-------------------------------------------------------|
D|--5/8--5/8--5/10---10-10-10-10-9-8---------------------|
A|--5/8--5/8--5/10---10-10-10-10-9-8---------------------|
E|--3/6--3/6--3/-8----8--8--8--8-7-6---------------------|
                    ^(Play four times)^

Guitar 2 (Distortion and slight vibrato)

E|------------------/12-12-12-12-11-10\------------------|
B|-------------------------------------------------------|
G|-------------------------------------------------------|
D|-------------------------------------------------------|
A|-------------------------------------------------------|
E|-------------------------------------------------------|
                    ^(Play four times)^


VERSE 1:

Guitar 1 (Distortion)

E|-------------------------------------------------------|
B|-------------------------------------------------------|
G|-------------------------------------------------------|
D|--5/8--5/8--5/10---10-10-10-10-9-8---------------------|
A|--5/8--5/8--5/10---10-10-10-10-9-8---------------------|
E|--3/6--3/6--3/-8----8--8--8--8-7-6---------------------|
                    ^(Play seven times)^

E|-------------------------------------------------------|
B|-------------------------------------------------------|
G|-------------------------------------------------------|
D|--5/8--5/8--5/10---10-10-------------------------------|
A|--5/8--5/8--5/10---10-10-------------------------------|
E|--3/6--3/6--3/-8----8--8-------------------------------|

Guitar 2 (Distortion and slight vibrato)

E|------------------/12-12-12-12-11-10\------------------|
B|-------------------------------------------------------|
G|-------------------------------------------------------|
D|-------------------------------------------------------|
A|-------------------------------------------------------|
E|-------------------------------------------------------|
                    ^(Play seven times)^


CHORUS 1:

Guitar 1 (Slight Distortion)

E|--7---7---8---8---5---5---8---8------------------------|
B|----8---8---8---8---8---8---8---8----------------------|
G|-------------------------------------------------------|
D|-------------------------------------------------------|
A|-------------------------------------------------------|
E|-------------------------------------------------------|
                   ^(Play four times)^

Guitar 2 (Clean)

E|-------------------------------------------------------|
B|-------------------------------------------------------|
G|------0--------0--------0--------0---------------------|
D|-------------5-----------------5-----------------------|
A|----5----5-3----------3----0-3-------------------------|
E|--3---------------0-1----------------------------------|
                   
E|-------------------------------------------------------|
B|-------------------------------------------------------|
G|------0--------0--------0--------0---------------------|
D|-------------5-----------------5-----------------------|
A|----5----5-3----------3----0-3-------------------------|
E|0-3---------------0-1----------------------------------|
                    ^(Play two times)^

E|-------------------------------------------------------|
B|-------------------------------------------------------|
G|------0--------0---------------------------------------|
D|-------------5-----------------------------------------|
A|----5----5-3----------3--------------------------------|
E|0-3---------------0-1----------------------------------|

Guitar 3 (Clean)

E|-------------------------------------------------------|
B|-------------------------------------------------------|
G|-------------------------------------------------------|
D|-------------5-----------------5-----------------------|
A|----5----0-3----------3----0-3-------------------------|
E|0-3---------------0-1----------------------------------|
                    ^(Play four times)^

VERSE 2:

Guitar 1 (Distortion)

E|-------------------------------------------------------|
B|-------------------------------------------------------|
G|-------------------------------------------------------|
D|--5/8--5/8--5/10---10-10-10-10-9-8---------------------|
A|--5/8--5/8--5/10---10-10-10-10-9-8---------------------|
E|--3/6--3/6--3/-8----8--8--8--8-7-6---------------------|
                    ^(Play nine times)^

Guitar 1

E|-------------------------------------------------------|
B|-------------------------------------------------------|
G|-------------------------------------------------------|
D|--5/8--5/8--5/10---10-10-------------------------------|
A|--5/8--5/8--5/10---10-10-------------------------------|
E|--3/6--3/6--3/-8----8--8-------------------------------|

Guitar 2 (Distortion and slight vibrato)

E|------------------/12-12-12-12-11-10\------------------|
B|-------------------------------------------------------|
G|-------------------------------------------------------|
D|-------------------------------------------------------|
A|-------------------------------------------------------|
E|-------------------------------------------------------|
                    ^(Play nine times)^


CHORUS 2:

Guitar 1 (Slight Distortion)

E|--7---7---8---8---5---5---8---8------------------------|
B|----8---8---8---8---8---8---8---8----------------------|
G|-------------------------------------------------------|
D|-------------------------------------------------------|
A|-------------------------------------------------------|
E|-------------------------------------------------------|
                   ^(Play six times)^

Guitar 2 (Clean)

E|-------------------------------------------------------|
B|-------------------------------------------------------|
G|------0--------0--------0--------0---------------------|
D|-------------5-----------------5-----------------------|
A|----5----5-3----------3----0-3-------------------------|
E|--3---------------0-1----------------------------------|

E|-------------------------------------------------------|
B|-------------------------------------------------------|
G|------0--------0--------0--------0---------------------|
D|-------------5-----------------5-----------------------|
A|----5----5-3----------3----0-3-------------------------|
E|0-3---------------0-1----------------------------------|
                   ^(Play four times)^
                   
E|-------------------------------------------------------|
B|-------------------------------------------------------|
G|------0--------0---------------------------------------|
D|-------------5-----------------------------------------|
A|----5----5-3---------3---------------------------------|
E|0-3--------------0-1-----------------------------------|

Guitar 3 (Clean)

E|-------------------------------------------------------|
B|-------------------------------------------------------|
G|-------------------------------------------------------|
D|-------------5-----------------5-----------------------|
A|----5----0-3----------3----0-3-------------------------|
E|0-3---------------0-1----------------------------------|
                    ^(Play six times)^

Guitar 4 (Clean)

E|--7---7---8---8---5---5---8---8------------------------|
B|----8---8---8---8---8---8---8---8----------------------|
G|-------------------------------------------------------|
D|-------------------------------------------------------|
A|-------------------------------------------------------|
E|-------------------------------------------------------|
   ^(Play twice during last two measures of chorus 2)^


SEMI-BRIDGE:

Guitar 1 (Distortion)

E|-------------------------------------------------------|
B|-------------------------------------------------------|
G|-------------------------------------------------------|
D|--5/8--5/8--5/10---10-10-10-10-9-8---------------------|
A|--5/8--5/8--5/10---10-10-10-10-9-8---------------------|
E|--3/6--3/6--3/-8----8--8--8--8-7-6---------------------|
                    ^(Play four times)^

E|-------------------------------------------------------|
B|-------------------------------------------------------|
G|-------------------------------------------------------|
D|--5/8--5/8--5/10---10-10-------------------------------|
A|--5/8--5/8--5/10---10-10-------------------------------|
E|--3/6--3/6--3/-8----8--8-------------------------------|

Guitar 2 (Distortion and slight vibrato)

E|------------------/12-12-12-12-11-10\------------------|
B|-------------------------------------------------------|
G|-------------------------------------------------------|
D|-------------------------------------------------------|
A|-------------------------------------------------------|
E|-------------------------------------------------------|
                    ^(Play four times)^


CHORUS 3:

Guitar 1 (Slight Distortion)

E|--7---7---8---8---5---5---8---8------------------------|
B|----8---8---8---8---8---8---8---8----------------------|
G|-------------------------------------------------------|
D|-------------------------------------------------------|
A|-------------------------------------------------------|
E|-------------------------------------------------------|
                   ^(Play four times)^

Guitar 2 (Clean)

E|-------------------------------------------------------|
B|-------------------------------------------------------|
G|------0--------0--------0--------0---------------------|
D|-------------5-----------------5-----------------------|
A|----5----5-3----------3----0-3-------------------------|
E|--3---------------0-1----------------------------------|

E|-------------------------------------------------------|
B|-------------------------------------------------------|
G|------0--------0--------0--------0---------------------|
D|-------------5-----------------5-----------------------|
A|----5----5-3----------3----0-3-------------------------|
E|0-3---------------0-1----------------------------------|
                   ^Play two times^
                   
E|-------------------------------------------------------|
B|-------------------------------------------------------|
G|------0--------0---------------------------------------|
D|-------------5-----------------------------------------|
A|----5----5-3---------3---------------------------------|
E|0-3--------------0-1-----------------------------------|

Guitar 3 (Clean)

E|-------------------------------------------------------|
B|-------------------------------------------------------|
G|-------------------------------------------------------|
D|-------------5-----------------5-----------------------|
A|----5----0-3----------3----0-3-------------------------|
E|0-3---------------0-1----------------------------------|
                    ^(Play four times)^


CHORUS 4 and OUTRO:

Guitar 1 (Distortion)

E|--7---7---8---8---5---5---8---8------------------------|
B|----8---8---8---8---8---8---8---8----------------------|
G|-------------------------------------------------------|
D|-------------------------------------------------------|
A|-------------------------------------------------------|
E|-------------------------------------------------------|
             ^(Play seventeen times (Fade out))^

Guitar 2 (Distortion)
E|-------------------------------------------------------|
B|-------------------------------------------------------|
G|----------5---------------5----------------------------|
D|--5-------5-------3-------5----------------------------|
A|--5-------3-------3-------3----------------------------|
E|--3---------------1------------------------------------|
             ^(Play seventeen times (Fade Out))^

Guitar 3 (Distortion and slight vibrato)

E|-------------------------------------------------------|
B|-/12-(hold for two measures)---------------------------|
G|-------------------------------------------------------|
D|-------------------------------------------------------|
A|-------------------------------------------------------|
E|-------------------------------------------------------|

E|-------------------------------------------------------|
B|(12)\8-(hold for two measures)-------------------------|
G|-------------------------------------------------------|
D|-------------------------------------------------------|
A|-------------------------------------------------------|
E|-------------------------------------------------------|
^(Play both guitar 3 parts twice, consecutively (Fade out))^